Oops, an error
Loading. Please wait.

I Like Dirt Bass Tab

version 2
version 2

Whole song

Interactive

6,321 views 24 this week
no commentswrite comment
1 2 3 4 5
please rate
add to favorites
launch autoscroll
font size
0
reset
guitar tuner
Autoscroll
slow
fast
+/-
esc
set tempo
stop
Help us to improve Ultimate-Guitar.com Take our survey!
×
Author
Difficulty
intermediate
----------------------------------------------------------------------------
		I like dirt-Red hot chili peppers
----------------------------------------------------------------------------

Tabbed By : Joel Keane (jk41)
e-mail:

Tuning: Standard

Intro
G|-----------------------------------|
D|-----------------------------------|
A|-----------------------------------|
E|---5--7----5--7----5--7----5--7----|

verse
G|----------------------------------------------|
D|------9-------9-x-7-9-----9-------9-x-789-----|
A|----------------------------------------------|
E|--5-7---x-5-7---------5-7---x-5-7-------------|

verse fills
verse 1             verse 2                     verse 3
G|-----------------]---------------------------]-----------------------------|
D|-----------------]-----9-7-------------------]-----------------------------|
A|-----8---7-5-----]---------9-8-7-0-5-7-5-----]-----------------------------|
E|-5-7---0-----7-0-]-5-7-------------------7-0-]-5-7-/10-10-10-10-9-7-0------|

chorus/i like dirt riff
G|--------------------------------------------------------------------------|
D|--------------------------------------------------------------------------|
A|-5------5----------5------5----------5------5----------5------5-----------|
E|---7-7----7-7--------7-7----7-7--------7-7----7-7--------7-7----7-7-------|

2nd verse break/interlude
G|-------------------------------------7h8-------------------|
D|-----------------------------------------8-10--------------|back to verse
A|----------------------------------------------8-10-6-8-----|    riff
E|--8---------8--8------8---------8--8-------------------8---|

chorus then
solo
G|---------------------------------|
D|---------------------------------|
A|-5--7----5--7----5--7----5--7----|
E|---------------------------------|

3rd verse then
outro/chorus
G|--------------------------------------------------------------------------|
D|--------------------------------9-7---------------------------------------|
A|------------------5------5----------9-----------------5-----7-5-----------|
E|--5-7-7--5-7-7------7-7----7-7--------5-7-7--5-7-7------7-7-----7--7------|

| /  slide up
| \  slide down
| h  hammer-on
| p  pull-off
| ~  vibrato
| +  harmonic
| x  Mute note
===============================================================================
Suggest correction
Give kudos to tab author, rate the tab!
1 2 3 4 5
comments
print report bad tab
guest
You may want to rate the tab now too:
select rating
Please do not post tabs as comments. Select "correction" instead!