Oops, an error
Loading. Please wait.

I Like Dirt Tab

version 3
version 3

Whole song

Interactive

299 views 3 this week
no commentswrite comment
1 2 3 4 5
3 more votes to show rating
add to favorites
launch autoscroll
font size
0
reset
how to read this tab
guitar tuner
backing track
0:00
0:00
Autoscroll
slow
fast
+/-
esc
set tempo
stop
Author
#----------------------------------PLEASE NOTE--------------------------------#
#This file is the author's own work and represents their interpretation of the#
#song. You may only use this file for private study, scholarship, or research.#
#-----------------------------------------------------------------------------#
#-- File created with Instab - http://www.pconline.com/~smcarey/instab.html --#
#-----------------------------------------------------------------------------#

Author/Artist: Red Hot Chili Peppers
Title: I Like Dirt

Palm mute all.

Album Tuning (eb A D G B E), (eb, D) Down ~ 10%
Live Tuning (D A D D D D)
Key: (E + D)



----|-5---7---|--|-7---7----------5---7----|----------------------------------|
----|-7---7---|--|-7---7----------7---7----|----------------------------------|
----|---------|--|-------------------------|----------------------------------|
----|---------|2x|-------------------------|----------------------------------|
----|---------|--|-------------------------|----------------------------------|
----|---------|--|-------------------------|----------------------------------|


  Intro Palm Mute


----|-7---5---|--|-------------------------|--|-------------------------------|
----|-7---7---|--|-------------------------|--|-------------------------------|
----|---------|--|-------------------------|--|-------------------------------|
----|---------|--|-------------------------|--|-------------------------------|
----|---------|--|-17---------17-----------|--|-------------------------------|
----|---------|--|----20-20------20-20-----|--|-------------------------------|


  Verse/Chorus Mess w/ Chords Palm Mute



----|----------------------------|--|------------------------------|----------|
----|----------------------------|--|------------------------------|----------|
----|-8------5-------------------|--|------------------------------|----------|
----|-8---5----------------------|--|-15/17------------------------|----------|
----|-----------10--10--6--8--3--|--|--------18-20-15-18-13-15-10--|----------|
----|----------------------------|--|------------------------------|----------|


  Interlude
Suggest correction
Give kudos to tab author, rate the tab!
1 2 3 4 5
comments
print report bad tab
guest
You may want to rate the tab now too:
select rating
Wanna post a correction for this tab? Suggest correction