Oops, an error
Loading. Please wait.

If You Have To Ask Bass Tab

version 2
version 2

Whole song

30,724 views 123 this week
5 commentsread comments
1 2 3 4 5
excellent!
x 9
add to favorites
launch autoscroll
font size
0
reset
guitar tuner
Autoscroll
slow
fast
+/-
esc
set tempo
stop
Help us to improve Ultimate-Guitar.com Take our survey!
×
Author
Difficulty
Tuning
intermediate
D A D G B E
G|---------------------------------|---------------------------------|
D|---------------------------------|---------------------------------|
A|---------530-------------530-----|---------530---------------------|
D|-0-----------5---------------3---|-0-----------5---------5/17\5----|
   
G|---------------------------------|---------------------------------|
D|---------------------------------|---------------------------------|
A|---------530-------------530-----|---------530-----2---3-----------|
D|-0-----------5---------------3---|-0-----------5-----------5-------|
   

G|---------------------------------|---------------------------------|
D|---------------------------------|---------------------------------|
A|---------530-------------530-----|---------530---------------------|
D|-0-----------5---------------3---|-0-----------5---------5/17\5----|
   

G|---------------------------------|---------------------------------|
D|---------------------------------|---------------------------------|
A|---------530-------------530-----|---------530-------2---3---4---5-|
D|-0-----------5---------------3---|-0-----------5-------------------|
   

G|---------------------------------|---------------------------------|
D|---------------------------------|---------------------------------|
A|---------530-------------530-----|---------530---------------------|
D|-0-----------5---------------3---|-0-----------5---------5/17\5----|
   

G|---------------------------------|---------------------------------|
D|---------------------------------|---------------------------------|
A|---------530-------------530-----|---------530-----2---3-----------|
D|-0-----------5---------------3---|-0-----------5-----------5-------|
   

G|---------------------------------|---------------------------------|
D|---------------------------------|---------------------------------|
A|---------530-------------530-----|---------530---------------------|
D|-0-----------5---------------3---|-0-----------5---------5/17\5----|
   

G|---------------------------------|---------------------------------|
D|---------------------------------|---------------------------------|
A|---------530-------------530-----|---------530-------2---3---4---5-|
D|-0-----------5---------------3---|-0-----------5-------------------|
   
CHORUS

G|-------2h3-----------------------|-------2h3-----------3---5-------|
D|-----R-------1---X-3h4---1-------|-------------1---4-5---3---------|
A|-3---------3-----------3---3-1---|-3---------3---3-----------6\----|
D|---------------------------------|---------------------------------|
   

G|-------2h3-----------------------|-------2h3-----------------------|
D|-----R-------1---X-3h4---1-------|-------------1-------------------|
A|-3---------3-----------3---3-1---|-3---------3---------------------|
D|---------------------------------|---------------0-1---3---4---5---|
   

G|-------2h3-----------------------|-------2h3-X-8-9---X-2-3---------|
D|-------------1-----3h4---1-------|---------------------------X-1---|
A|-3---------3-----------3---3-1---|-3-------------------------------|
D|---------------------------------|---------------------------------|
   

G|-------2h3-----------------------|---------------------------------|
D|-------------1-----3h4---1-------|---------------------------------|
A|-3---------3-----------3---3-1---|-3-----------1-------------------|
D|---------------------------------|---------------------------------|
  
INTERLUDE

G|---------------------------------|---------------------------------|
D|---------------------------------|---------------------------------|
A|---------530-------------530-----|---------530---------------------|
D|-0-----------5---------------3---|-0-----------5---------5/17\5----|
   

G|---------------------------------|---------------------------------|
D|---------------------------------|---------------------------------|
A|---------530-------------530-----|---------530-----2---3-----------|
D|-0-----------5---------------3---|-0-----------5-----------5-------|
   
VERSE 2

G|---------------------------------|---------------------------------|
D|---------------------------------|---------------------------------|
A|---------530-------------530-----|---------530---------------------|
D|-0-----------5---------------3---|-0-----------5---------5/17\5----|
   

G|---------------------------------|---------------------------------|
D|---------------------------------|---------------------------------|
A|---------530-------------530-----|---------530-------2---3---4---5-|
D|-0-----------5---------------3---|-0-----------5-------------------|
   

G|---------------------------------|---------------------------------|
D|---------------------------------|---------------------------------|
A|---------530-------------530-----|---------530---------------------|
D|-0-----------5---------------3---|-0-----------5---------5/17\5----|
   

G|---------------------------------|---------------------------------|
D|---------------------------------|---------------------------------|
A|---------530-------------530-----|---------530-----2---3-----------|
D|-0-----------5---------------3---|-0-----------5-----------5-------|
   

G|---------------------------------|---------------------------------|
D|---------------------------------|---------------------------------|
A|---------530-------------530-----|---------530---------------------|
D|-0-----------5---------------3---|-0-----------5---------5/17\5----|
   

G|---------------------------------|---------------------------------|
D|---------------------------------|---------------------------------|
A|---------530-------------530-----|---------530-------2---3---4---5-|
D|-0-----------5---------------3---|-0-----------5-------------------|
   
CHORUS 2

G|-------2h3-----------------------|-------2h3-----------------------|
D|-------------1-----3h4---1-------|-------------1---4---5---5-------|
A|-3---------3-----------3---3-1---|-3---------3---3-------------1---|
D|---------------------------------|---------------------------------|
   

G|-------2h3-----------------------|-------2h3---------2-------------|
D|-------------1-----3h4---1-------|-------------1-------1-----------|
A|-3---------3-----------3---3-1---|-3---------3-----1---------------|
D|---------------------------------|---------------------------3-----|
   

G|-------2h3-----------------------|-------2h3-----10-8---9---10\-----|
D|-------------1-----3h4---1-------|-------------1-------------------|
A|-3---------3-----------3---3-1---|-3---------3---------------------|
D|---------------------------------|---------------------------------|
   

G|-------2h3-----------------------|---------------------------------|
D|-------------1-----3h4---1-------|---------1-----------------------|
A|-3---------3-----------3---3-1---|-3-----------1-------------------|
D|---------------------------------|---------------------------------|
   
INTERLUDE

G|---------------------------------|---------------------------------|
D|-5-------4-------3---------------|-1-------------------------------|
A|-------------------------3-------|-----------------5---------------|
D|---------------------------------|---------------------------------|
   

G|---------------------------------|---------------------------------|
D|-5-------4-------3---------------|-1-------------------------------|
A|-------------------------3-------|---------1-------5---------------|
D|---------------------------------|---------------------------------|
   

G|---------------------------------|---------------------------------|
D|-5---X-4---X-3-------------------|-1-------------------------------|
A|------------------X-3-------3----|-----X-1---X-5---X---------------|
D|---------------------------------|-------------------0---X-----X---|
   

G|---------------------------------|---------------------------------|
D|-5---X-4---X-3-------------------|-1-------------------------------|
A|------------------X-3-------3----|-----X-1---X-5----5///17\\\5-----|
D|---------------------------------|---------------------------------|
   

GUITAR SOLO

G|---------------------------------|---------------------------------|
D|---------------------------------|---------------------------------|
A|---------530-------------530-----|---------530---------------------|
D|-0-----------5---------------3---|-0-----------5---------5/17\5----|
   

G|---------------------------------|---------------------------------|
D|---------------------------------|---------------------------------|
A|---------530-------------530-----|---------530-----2---3-----------|
D|-0-----------5---------------3---|-0-----------5-----------5-------|
   

G|---------------------------------|---------------------------------|
D|---------------------------------|---------------------------------|
A|---------530-------------530-----|---------530---------------------|
D|-0-----------5---------------3---|-0-----------5---------5/17\5----|
   

G|---------------------------------|---------------------------------|
D|---------------------------------|---------------------------------|
A|---------530-------------530-----|---------530-------2---3---4---5-|
D|-0-----------5---------------3---|-0-----------5-------------------|
   

G|---------------------------------|---------------------------------|
D|---------------------------------|---------------------------------|
A|---------530-------------530-----|---------530---------------------|
D|-0-----------5---------------3---|-0-----------5---------5/17\5----|
   

G|---------------------------------|---------------------------------|
D|---------------------------------|---------------------------------|
A|---------530-------------530-----|---------530-----2---3-----------|
D|-0-----------5---------------3---|-0-----------5-----------5-------|
   

G|---------------------------------|---------------------------------|
D|---------------------------------|---------------------------------|
A|---------530-------------530-----|---------530---------------------|
D|-0-----------5---------------3---|-0-----------5---------5/17\5----|
   

G|---------------------------------|---------------------------------|
D|---------------------------------|---------------------------------|
A|---------530-------------530-----|---------530-------2---3---4---5-|
D|-0-----------5---------------3---|-0-----------5-------------------|
   

G|---------------------------------|---------------------------------|
D|---------------------------------|---------------------------------|
A|---------------------------------|---------------------------------|
D|-0-------------------------------|---------------------------------|
   

G|---------------------------------|---------------------------------|
D|---------------------------------|---------------------------------|
A|---------530-------------530-----|---------530---------------------|
D|-0-----------5---------------3---|-0-----------5---------5/17\5----|
   

G|---------------------------------|---------------------------------|
D|---------------------------------|---------------------------------|
A|---------530-------------530-----|---------530-----2---3-----------|
D|-0-----------5---------------3---|-0-----------5-----------5-------|
   

G|---------------------------------|---------------------------------|
D|---------------------------------|---------------------------------|
A|---------530-------------530-----|---------530---------------------|
D|-0-----------5---------------3---|-0-----------5---------5/17\5----|
   

G|-------------------0h2---5---4-5-|---------------------------------|
D|-----------------------3---------|--X-3-------3--------------------|
A|---------530---------------------|-------3h5-----5-----3-----------|
D|-0-----------5-------------------|-------------------5-----0-------|

One of my favourite songs to play
   

Suggest correction
What's this?
You can suggest a correction to this tab. Community and Mods will review your correction and vote to approve or reject it.
comments
print report bad tab
5 comments total. Showing first comments.
0 reply
guitarr playa 38 wrote on March 15 2010, 05:53 pm

whats the r mean?

0 reply
Nirvlime 67 wrote on June 23 2010, 02:43 pm

Yeah, I have the same question. What's the r mean?

+1 reply
Eddie RHCP 100 wrote on August 12 2010, 04:35 pm

Sorry guys, edited out.. got a tab mixed up!

guest
You may want to rate the tab now too:
select rating
Please do not post tabs as comments. Select "correction" instead!