Oops, an error
Loading. Please wait.

If You Want Me To Stay Bass

version 4
version 4

Whole song

Interactive

827 views 1 this week
no commentswrite comment
1 2 3 4 5
2 more votes to show rating
add to favorites
launch autoscroll
font size
0
reset
guitar tuner
×
Best way to learn
"If You Want Me To Stay"
Autoscroll
slow
fast
+/-
esc
set tempo
stop
Author
Difficulty
intermediate
Hola a todos... no coloque todas las variaciones que posee la cancion porque son muchas, 
pero si las quieren obtener pueden escuchar la cancion y tratar de hallar cuales son. 
Las variaciones son muy similares a las que coloco a continuacion. Saludos desde Venezuela!

Hello everyone... I didnt tab all the variations of the whole song but you can get them 
by listening a little bit to it. The variations use the same notes that i show you here. 
Greetings from venezuela!



g----------------------------------------4-3-22-|
d---------------------2-33333333-5555-22--------|
a---------------5-333---------------------------|
e-5555555-4-333---------------------------------|

g--------------------------------------4-3------|
d---------------------2-3333333-----------------|
a---------------5-333-----------5555-2-----1----|
e-5555555-4-333---------------------------------|

g-----------------------------------------------|
d---------------------2-33333333-2222-----------|
a---------------5-333-----------------22-11-----|
e-5555555-4-333---------------------------------|

g-----------------------------------------------|
d-----------------------------------------------|
a---------------5-333---------------------------|
e-5555555-4-333-------0-11111111-0000-44444-----|

g--------------------------------------44-33-22-|
d---------------------2-33333333-55-22----------|
a---------------5-333---------------------------|
e-5555555-4-333---------------------------------|

g-----------------------------------------------|
d-----------------------------------------------|
a----------------5-333------------------x-22-11-|
e-5555555-4-3333-------0-11111111-33-00---------|

Estas son las prieras 6 variaciones de la cancion, como les dije no son todas...

These are the first 6 variations of the song, as i said, theyre not all...

Espero que puedan entender la tablatura con facilidad y que se diviertan tocando la 
cancion! Gracias por puntuar mi tablatura!

Hope you can read the tab easily, and that you can have fun playing the song! Thank  you 
for rating my tab!


OMPS
Suggest correction
Give kudos to tab author, rate the tab!
1 2 3 4 5
comments
print report bad tab
guest
You may want to rate the tab now too:
select rating
Wanna post a correction for this tab? Suggest correction