Oops, an error
Loading. Please wait.

In Love Dying bass

1,462 views 1 this week
no commentswrite comment
1 2 3 4 5
1 last vote to show rating
add to favorites
×
Save as Personal and add changes to this tab that will be seen only by you. Learn more ›
×
You can save this tab as Personal to edit and correct it or add notes. All changes will be seen only by you. Learn more »
launch autoscroll
font size
0
reset
guitar tuner
edit
Autoscroll
slow
fast
+/-
esc
set tempo
stop
Author
Difficulty
-----------------------------------------------------------------------------
                             Red Hot Chilli Peppers - In Love Dying
-----------------------------------------------------------------------------
Credit goes to "SirFunkyRose"

Intro/Verse

G-------7-----------------|
D-------------------------|
A-------------------------|
E--7-7----7-10-7-55-3-----| x3

G|--------------------------|
D|--------------------------|
A|--7---7---7-5--7-7--------|
E|-----7---7----------10----|

Chorus

G|---------------------------------------------|
D|-------------------------------7-------------|
A|---7----------7----------9---------7----7----|
E|---------7----------7------------------------|

This is Just a basic idea for the song if anyone has any suggestions then let me know 
and ill add it to the tab. Thank You

            
            
Suggest correction
Creating personal tab
Creating personal tab
You can edit any tab online and save it as your Personal.

You can edit, replace or remove any tab part or add personal notes – all changes will be seen only by you.

Personal tabs can be accessed anytime from any device, even offline.
Learn more »
Give kudos to tab author, rate the tab!
1 2 3 4 5
comments
print report bad tab
guest
You may want to rate the tab now too:
select rating
Wanna post a correction for this tab? Suggest correction