Oops, an error
Loading. Please wait.

Jungle Man Bass Tab

version 2
version 2

Whole song

Interactive

6,139 views 1 this week
1 commentread comment
1 2 3 4 5
accurate
x 9
add to favorites
launch autoscroll
font size
0
reset
guitar tuner
Tab Pro tools
  • play this tab
  • loop segment
  • change instrument
  • show fretboard
  • metronome
×
Best way to learn
"Jungle Man"
Autoscroll
slow
fast
+/-
esc
set tempo
stop
Difficulty
intermediate
Song: Jungle Man
Album: Freaky Styley / What Hits!?
Artist: Red Hot Chili Peppers                   
Tab by Taylor Brown

G |----------------------|----------------------|
D |-------4--------------|-----4----------------|
A |----------------------|----------------------|
E |-0/2-2---2-0----------|-2-2---2-0-2----------| x2

G |----------------------|----------------------|
D |-----4-----7---9------|-----4-----7---9------|
A |----------------------|----------------------|
E |-2-2---2-5---7--------|-2-2---2-5---7--------| x2

G |----------------------|------------------------------|
D |----------------------|------------------------------|
A |-5--------------------|-5-5-5-5-5-5-5-5-5-5-5-5-5-5-5|
E |----------------------|------------------------------|

  Verse
G |----------------------|----------------------|
D |-------4--------------|-----4----------------|
A |----------------------|----------------------|
E |-0/2-2---2-0----------|-2-2---2-0-2----------|

G |----------------------|----7-----------------|
D |-------4--------------|----------------------|
A |----------------------|-5-5---5-7-7-7-7-7-7--|
E |-0/2-2---2-0----------|----------------------|

G |----------------------|----------------------|
D |-------4--------------|-------4--------------|
A |----------------------|----------------------|
E |-0/2-2---2-0----------|-0/2-2---2-0----------|

G |----------------------|-----7-------9--------|
D |-------4--------------|----------------------|
A |----------------------|-5-5---5-7-7---7------|
E |-0/2-2---2-0----------|----------------------|

G |----------------------|----------------------|
D |-------4--------------|-----4----------------|
A |----------------------|----------------------|
E |-0/2-2---2-0----------|-2-2---2-0-2----------|



G |----------------------|-----7-------9--------|
D |-------4--------------|----------------------|
A |----------------------|-5-5---5-7-7---7------|
E |-0/2-2---2-0----------|----------------------|



G |----------------------|----------------------|
D |-------4--------------|-------4--------------|
A |----------------------|----------------------|
E |-0/2-2---2-0----------|-0/2-2---2-0----------|

G |----------------------|----7-----------------|
D |-------4--------------|----------------------|
A |----------------------|-5-5---5--7-7-7-7-----|
E |-0/2-2---2-0----------|----------------------|

  Chorus
G |----------------------|----------------------|
D |-----4-----7---9------|-----4-----7---9------|
A |----------------------|----------------------|
E |-2-2---2-5---7--------|-2-2---2-5---7--------| x4

  Verse
G |----------------------|----------------------|
D |-------4--------------|-----4----------------|
A |----------------------|----------------------|
E |-0/2-2---2-0----------|-2-2---2-0-2----------|

G |----------------------|----7-----------------|
D |-------4--------------|----------------------|
A |----------------------|-5-5---5-7-7-7-7------|
E |-0/2-2---2-0----------|----------------------|

G |----------------------|----------------------|
D |-------4--------------|-----4----------------|
A |----------------------|----------------------|
E |-0/2-2---2-0----------|-2-2---2-0-2----------|

G |----------------------|----7-----------------|
D |-------4--------------|----------------------|
A |----------------------|-5-5---5-7-7-7-7-7----|
E |-0/2-2---2-0----------|----------------------|




G |----------------------|----------------------|
D |-------4--------------|-----4----------------|
A |----------------------|----------------------|
E |-0/2-2---2-0----------|-2-2---2-0-2----------|

G |----------------------|-----7-------9--------|
D |-------4--------------|----------------------|
A |----------------------|-5-5---5-7-7---7------|
E |-0/2-2---2-0----------|----------------------|


G |----------------------|----------------------|
D |-------4--------------|-----4----------------|
A |----------------------|----------------------|
E |-0/2-2---2-0----------|-2-2---2-0-2----------|

G |----------------------|----7-----------------|
D |-------4--------------|----------------------|
A |----------------------|-5-5---5-7-7-7-7------|
E |-0/2-2---2-0----------|----------------------|

  Verse
G |----------------------|----------------------|
D |-----4-----7---9------|-----4-----7---9------|
A |----------------------|----------------------|
E |-2-2---2-5---7--------|-2-2---2-5---7--------| x4

  Interlude
G |----------------------|----------------------|
D |---7------------------|-----7----------------|
A |-----4-4-5-5-6-7------|---------4-4-5-5-6-7--|
E |-5--------------------|5-5---5------------5-5| x5
                         (Don’t play on 5th time )

G |----------------------|----------------------|
D |---7-5---5------------|----------------------|
A |-------7-----7-5------|----------------------|
E |-5---------------5----|----------------------|
 
  Solo
G |----------------------|----------------------|
D |-------4--------------|-----4----------------|
A |----------------------|----------------------|
E |-0/2-2---2-0----------|-2-2---2-0-2----------|




G |----------------------|----------------------|
D |-------4--------------|-----7--------9-------|
A |----------------------|----------------------|
E |-0/2-2---2-0----------|-5-5----5-7-7---7-----|

G |----------------------|----------------------|
D |-------4--------------|-----4----------------|
A |----------------------|----------------------|
E |-0/2-2---2-0----------|-2-2---2-0-2----------|


G |----------------------|----------------------|
D |-------4--------------|-----7--------9-------|
A |----------------------|----------------------|
E |-0/2-2---2-0----------|-5-5----5-7-7---7-----|

G |----------------------|----------------------|
D |-------4--------------|-----4----------------|
A |----------------------|----------------------|
E |-0/2-2---2-0----------|-2-2---2-0-2----------| x3

G |----------------------|----------------------|
D |-------4--------------|-----4----------------|
A |----------------------|----------------------|
E |-0/2-2---2-0----------|-0/2-----2-5-0--------|

  Out-Chorus
G |----------------------|----------------------|
D |-------4-----7---9----|-------4-----7---9----|
A |----------------------|----------------------|
E |-0/2-2---2-5---7------|-0/2-2---2-5---7------| x8

  Outro
G |----------------------|----------------------|
D |-------4--------------|-------4--------------|
A |----------------------|----------------------|
E |-0/2-2---2-0----------|-0/2-2---2-5-0--------|

G |----------------------|----------------------|
D |----------------------|----------------------|
A |----------------------|----------------------|
E |-0-2------------------|----------------------|

Wicked Song! please rate my tabs, this is only my second ever tab
comments
print report bad tab
1 comment total.
-1 reply
PaolaLorenz wrote on April 12 2009, 02:00 pm

badddd\

I want to post or [tab]
guest
You may want to rate the tab now too:
select rating
Please do not post tabs as comments. Select "correction" instead!