Oops, an error
Loading. Please wait.

Knock Me Down Bass Tab

version 2
version 2

Whole song

Interactive

7,588 views 15 this week
no commentswrite comment
1 2 3 4 5
x 4
add to favorites
launch autoscroll
font size
0
reset
guitar tuner
Autoscroll
slow
fast
+/-
esc
set tempo
stop
Help us to improve Ultimate-Guitar.com Take our survey!
×
Author
Difficulty
intermediate
Knock me down
Red hot chili peppers
tabbed by ovalman24
let me now if theres anything wrong with the tab
during some parts theres slapping and popping im sure you can figure it out ;)


g---------------------|
d---------------------|
a-----3---5h7-0-3-5---|         x3
e-3h5-----------------|


g--------|
d--------|
a--------|
e-1------|

g--------------------------------------------------------------------------------|
d--------------------------------------------------------------------------------|
a-5--5----0-0--------------------3--4--5--5--0-3--3---1---1--1---1-3p1-3-3-1-3-1-|
e-------1-------3----3-3---3-3h5-------------------------------------------------|

g------------------------------------------------------------------------------------|
d------------------------------------------------------------------------------------|
a-5--5----0-0-------------------------------------------------------7--7-------------|
e-------1-------3--3-3----3---3--5-5-5-5-5-5-5-5--6-6-6-6-6-6-6-6---------10-7-7---5-|

g-----------------------------------------------------------------------------------|
d-----------------------------------------------------------------------------------|
a------------5---6--7-7--7-7---3---3-5h3-5h3-6h3--7--7------------------------------|
e-5-5--5-5-7---------------------------------------------10-7-7---5---5-5----5---5--|

g----------------------------------|
d----------------------------------|
a----------------------------------|
e-7-7-7-7-7-7-7-7--8-8-8-8-8-8-5-5-|

g----------5----------------5-----------------9------------------------|
d----------------------------------------------------------------------|       x2
a-5-5--3-----3-3---5-5--3-----3-3--------7------7-7----------------2-3-|
e-----------------------------------5-5--------------0-0-1--2-3--3-----|

g----------------------------------------------------     ----------------------|   play
d---------------------------------------------------- x2  ----------------------|  << on first
a-5--5----0-0-----------------3--4--5--5--0-3-3--1---     -1-1---1-3p1-3-3-1-3-1|  bar but not 2nd
e-------1------3---3-3--3-3h5------------------------     ----------------------|

g----------------------------------------------------------------------------------|
d----------------------------------------------------------------------------------|
a-1-1-----1---1--5--5-----0-0------------------------------------------------------|
e-----------------------1------3--3-3----3---3--5-5-5-5-5-5-5-5--6-6-6-6-6-6-6-6-6-|

g-----------------------------------------------------------------------|
d-----------------------------------------------------------------------|
a-7--7------------------------5-7--6--5---4--4--------------------------|
e-------0-7-7--5---5-5--5-5h7-------------------0-4-4--2---2--2-2-2-2-2-|

g-----------------------------------------------------------------|
d-----------------------------------------------------------------|
a-7--7-----------------------5--0---4--4--------------------------|
e-------0-7-7--5---5-5---5-7--------------0-4-4--2---2--2-2-2-2-2-|

g----------5----------------5-----------------9------------------------|
d----------------------------------------------------------------------|
a-5-5--3-----3-3---5-5--3-----3-3--------7------7-7----------------2-3-|
e-----------------------------------5-5--------------0-0-1--2-3--3-----|

g----------5----------------5-----------------9------------------------|
d----------------------------------------------------------------------|
a-5-5--3-----3-3---5-5--3-----3-3--------7------7-7--------------------|
e-----------------------------------5-5--------------0-0-1--2-3--3-7-8-|

g-----------------------------------------------------------------------|
d-------------14-----------------------3--3-----------------------------|
a-------10h12----------------------------------3-3--1---1-1-1-1-1-1-1-1-|
e-10h12----------6--------6---3----6---------3--------------------------|

g-2-2-2-2-2-2-2-2-------------------2-2-2-2-2-2-2-2-2------------------|
d------------------3-3-3-3-3-3-3-3---------------------3-3-3-3-3-3-3-3-|
a----------------------------------------------------------------------|
e----------------------------------------------------------------------|

g------------------------------------------------|
d------------------------------------------------|
a------------------------------------------------|
e-3-3--3-3-3-3-3--1-1--5---5---5--5-5-5-5--5-5-5-|

g----------5----------------5-----------------9------------------------|
d----------------------------------------------------------------------|   x2
a-5-5--3-----3-3---5-5--3-----3-3--------7------7-7----------------2-3-|
e-----------------------------------5-5--------------0-0-1--2-3--3-----|

g----------9---------------------9----9--------------13--------13-----|
d---------------------------------------------------------------------|
a-9--9--7----7-7------9--9---7-----7----7--------11------11--------11-|
e------------------------------------------9--9-----------------------|

g----9----9-----------------------------9------------------9-------9---|
d----------------------------------------------------------------------|
a-7----7-----7----------------9--9---7----7-7----9--9---7----7-------7-|
e--------------7-----7-----7-------------------------------------------|

g-----------13-------13-------9---9-------------|
d-----------------------------------------------|
a-------11-----11-------11--7---7----7----------|
e-------------------------------------7---7---7-|

g---------------------------------------------------------------------|
d---------------------------------------------------------------------|
a-4-4-4-4-4-4-4-4-4--4-4-4-4-4-4-4-4----------------------------------|
e------------------------------------0-0-0-0-0-0-0-0--2-2-2-2-2-2-2-2-|

g------------------------------------------------------------------|
d------------------------------------------------------------------|
a-4-4-4-4-4-4-4-4--4-4-4-4-4-4-4-4-----------------2-2-2-2-2-2-2-2-|
e----------------------------------0-0-0-0-0-0-0-0-----------------|
Suggest correction
comments
print report bad tab
guest
You may want to rate the tab now too:
select rating
Wanna post a correction for this tab? Suggest correction