Oops, an error
Loading. Please wait.

Lately bass

version 1
version 1

Whole song

Interactive

4,216 views 1 this week
no commentswrite comment
1 2 3 4 5
x 4
add to favorites
×
Save as Personal and add changes to this tab that will be seen only by you. Learn more ›
×
You can save this tab as Personal to edit and correct it or add notes. All changes will be seen only by you. Learn more »
launch autoscroll
font size
0
reset
guitar tuner
edit
Autoscroll
slow
fast
+/-
esc
set tempo
stop
Red Hot Chili Peppers - Lately

INTRO

G|---------------------------------|---------------------------------|
D|---------------5-----3-----------|---------------5---2h3-----------|
A|-----X-2-3---3-----3-----0-------|-----X-2-3---3-------------------|
E|-5---------------------------X---|-5---------------------3h5-------|

G|---------------------------------|---------------------------------|
D|---------------5-----3-----------|---------------5---2h3-----------|
A|-----X-2-3---3-----3-----0-------|-----X-2-3---3-------------------|
E|-5---------------------------X---|-5---------------------3h5p0h3---|

VERSE

G|---------------------------------|---------------------------------|
D|---------------5-----3-----------|---------------5---2-3-----------|
A|-----X-2-3---3-----3-----0-------|-----X-2-3---3-------------------|
E|-5---------------------------X---|-5---------------------3-5---X---|

G|---------------------------------|---------------------------------|
D|---------------5-----3-----------|---------------5---2-3-----------|
A|-----X-2-3---3-----3-----0-------|-----X-2-3---3-------------------|
E|-5---------------------------X---|-5---------------------3-5-------|

PRE-CHORUS

G|---------------------------------|---------------------------------|
D|---------------------------------|---------------------------------|
A|-5-------5-----5-----------------|---------------------------7-----|
E|-------------------0-1---1-------|-5---5---5---5---5---5---5-------|


G|---------------------------------|---------------------------------|
D|---------------------------------|---------------------------------|
A|-5-------5-----5-----------------|---------------------------7-----|
E|-------------------0-1---1-------|-5---5---5---5---5---5-0-5-------|


G|---------------------------------|---------------------------------|
D|---------------------------------|---------------------------------|
A|-5-------5-----5-----------------|---------------------------7-----|
E|-------------------0-1---1-------|-5---5---5---5---5---5---5-------|


G|---------------------------------|
D|---------------------------------|
A|-5-------5-----5-----------------|
E|-------------------0-1---1-------|

INTERLUDE

G|---------------------------------|---------------------------------|
D|---------------5-----3-----------|---------------5---2h3-----------|
A|-----X-2-3---3-----3-----0-------|-----X-2-3---3-------------------|
E|-5---------------------------X---|-5---------------------3h5-------|

VERSE

G|---------------------------------|---------------------------------|
D|---------------5-----3-----------|---------------5---2h3-----------|
A|-----X-2-3---3-----3-----0-------|-----X-2-3---3-------------------|
E|-5---------------------------X---|-5---------------------3h5-------|

G|---------------------------------|---------------------------------|
D|---------------5-----3-----------|---------------5---2h3-----------|
A|-----X-2-3---3-----3-----0-------|-----X-2-3---3-------------------|
E|-5---------------------------X---|-5---------------------3h5-------|

PRE-CHORUS

G|---------------------------------|---------------------------------|
D|---------------------------------|---------------------------------|
A|-5-------5-----5-----------------|---------------------------7-----|
E|-------------------0-1---1-------|-5---5---5---5---5---5---5-------|

G|---------------------------------|---------------------------------|
D|---------------------------------|---------------------------------|
A|-5-------5-----5-----------------|---------------------------7-----|
E|-------------------0-1---1-------|-5---5---5---5---5---5---5-------|

G|---------------------------------|---------------------------------|
D|---------------------------------|---------------------------------|
A|-5-------5-----5---3-------------|---------------------------7-----|
E|---------------------5-3-1-------|-5---5---5---5---5---5---5-------|

G|---------------------------------|---------------------------------|
D|---------------------------------|-----------------------------2---|
A|-5-------5-----5-----------------|-------------------------5-------|
E|-------------------0-1---1-------|-0---0-0-0-0-0-0-0-0-0-0---------|

CHORUS

G|---------------------------------|---------------------------------|
D|-3---3-3-3---3-3-----------------|-----------------------------2---|
A|-----------------3-3-3-3-3-3-3-3-|-0---0-0-0---0-0-0-0-0-0-5-------|
E|---------------------------------|---------------------------------|

G|---------------------------------|---------------------------------|
D|-3---3-3-3---3-3-----------------|-----------------------------2---|
A|-----------------3-3-3-3-3-3-3-3-|-0---0-0-0---0-0-0-0-0-0-5-------|
E|---------------------------------|---------------------------------|

G|---------------------------------|---------------------------------|
D|-3---3-3-3---3-3-----------------|-----------------------------2---|
A|-----------------3-3-3-3-3-3-3-3-|-0---0-0-0---0-0-0-0-0-0-5-------|
E|---------------------------------|---------------------------------|

G|---------------------------------|
D|-3---3-3-3---3-3-----------------|
A|-----------------3-3-3-3-3-3-3-3-|
E|---------------------------------|

INTERLUDE

G|---------------------------------|---------------------------------|
D|---------------5-----3-----------|---------------5---2h3-----------|
A|-----X-2-3---3-----3-----0-------|-----X-2-3---3-------------------|
E|-5---------------------------X---|-5---------------------3h5-------|

VERSE

G|---------------------------------|---------------------------------|
D|---------------5-----3-----------|---------------5---2h3-----------|
A|-----X-2-3---3-----3-----0-------|-----X-2-3---3-------------------|
E|-5---------------------------X---|-5---------------------3h5-------|

G|---------------------------------|---------------------------------|
D|---------------5-----3-----------|---------------5---2h3-----------|
A|-----X-2-3---3-----3-----0-------|-----X-2-3---3-------------------|
E|-5---------------------------X---|-5---------------------3h5-------|

PRE-CHORUS

G|---------------------------------|---------------------------------|
D|---------------------------------|---------------------------------|
A|-5-------5-----5-----------------|---------------------------7-----|
E|-------------------0-1---1-------|-5---5---5---5---5---5---5-------|

G|---------------------------------|---------------------------------|
D|---------------------------------|---------------------------------|
A|-5-------5-----5-----------------|---------------------------7-----|
E|-------------------0-1---1-------|-5---5---5---5---5---5---5-------|

G|---------------------------------|---------------------------------|
D|---------------------------------|---------------------------------|
A|-5-------5-----5---3-------------|---------------------------7-----|
E|---------------------5-3-1-------|-5---5---5---5---5---5---5-------|

G|---------------------------------|---------------------------------|
D|---------------------------------|-----------------------------2---|
A|-5-------5-----5-----------------|-------------------------5-------|
E|-------------------0-1---1-------|-0---0-0-0-0-0-0-0-0-0-0---------|

CHORUS

G|---------------------------------|---------------------------------|
D|-3---3-3-3---3-3-----------------|-----------------------------2---|
A|-----------------3-3-3-3-3-3-3-3-|-0---0-0-0---0-0-0-0-0-0-5-------|
E|---------------------------------|---------------------------------|

G|---------------------------------|---------------------------------|
D|-3---3-3-3---3-3-----------------|-----------------------------2---|
A|-----------------3-3-3-3-3-3-3-3-|-0---0-0-0---0-0-0-0-0-0-5-------|
E|---------------------------------|---------------------------------|

G|---------------------------------|---------------------------------|
D|-3---3-3-3---3-3-----------------|-----------------------------2---|
A|-----------------3-3-3-3-3-3-3-3-|-0---0-0-0---0-0-0-0-0-0-5-------|
E|---------------------------------|---------------------------------|

G|---------------------------------|
D|-3---3-3-3---3-3-----------------|
A|-----------------3-3-3-3-3-3-3-3-|
E|---------------------------------|
VERSE

G|---------------------------------|---------------------------------|
D|---------------5-----3-----------|---------------5---2h3-----------|
A|-----X-2-3---3-----3-----0-------|-----X-2-3---3-------------------|
E|-5---------------------------X---|-5---------------------3h5-------|

G|---------------------------------|---------------------------------|
D|---------------5-----3-----------|---------------5---2h3-----------|
A|-----X-2-3---3-----3-----0-------|-----X-2-3-----------------------|
E|-5---------------------------X---|-5---------------------3h5-------|

            
            
Suggest correction
Creating personal tab
Creating personal tab
You can edit any tab online and save it as your Personal.

You can edit, replace or remove any tab part or add personal notes – all changes will be seen only by you.

Personal tabs can be accessed anytime from any device, even offline.
Learn more »
comments
print report bad tab
guest
You may want to rate the tab now too:
select rating
Wanna post a correction for this tab? Suggest correction