Oops, an error
Loading. Please wait.

Leverage Of Space Bass Tab

version 2
version 2

Whole song

Interactive

1,248 views 1 this week
no commentswrite comment
1 2 3 4 5
please rate
add to favorites
launch autoscroll
font size
0
reset
guitar tuner
Autoscroll
slow
fast
+/-
esc
set tempo
stop
Help us to improve Ultimate-Guitar.com Take our survey!
×
Difficulty
advanced
Intro
G|-21-----------2121----------2121----------2121----------21------|
D|---17--17---------17--17--------17--17--------17--17------------|
A|-----19---1919------19--1919------17--1717------17--1717--------|
E|----------------------------------------------------------------|

G|-21-----------2121----------2121-----------2121----------21-----|
D|---17--17---------17--17---------19--19--------19--19-----------|
A|-----15--1515-------15--1515-------17--1717------17--1717-------|
E|----------------------------------------------------------------|

back to beginning until chorus

Chorus
G|--------------191919------191919212121| 
D|--------212121------212121------------|
A|--191919------------------------------|
E|--------------------------------------|

G|--------------212121------------------| 
D|--------191919------191919------191919|
A|--171717------------------171717------|
E|--------------------------------------|

G|--------------212121------------------| 
D|--------171717------171717------171717|
A|--151515------------------151515------|
E|--------------------------------------|

G|--------------171717------191917------| 
D|--------191919------191919------19----|
A|--171717------------------------------|
E|--------------------------------------|

Bridge after 2nd Verse
G|--------------191919------191919212121| 
D|--------212121------212121------------|
A|--191919------------------------------|
E|--------------------------------------|

G|--------------191919------212119------| 
D|--------212121------212121------21----|
A|--191919------------------------------|
E|--------------------------------------|

End of song after lyrics finish
G|--------------191919------191919212121| 
D|--------212121------212121------------|
A|--191919------------------------------|
E|--------------------------------------|

G|--------------212121------------------| 
D|--------191919------191919------191919|
A|--171717------------------171717------|
E|--------------------------------------|

G|--------------212121------------------| 
D|--------171717------171717------171717|
A|--151515------------------151515------|
E|--------------------------------------|

G|--------------171717------191917------| 
D|--------191919------191919------19-14-|
A|--171717------------------------------|
E|------------------------------------0-|
Suggest correction
What's this?
You can suggest a correction to this tab. Community and Mods will review your correction and vote to approve or reject it.
comments
We did not receive enough feedback on this tab! Please rate:
print report bad tab
1 2 3 4 5
guest
You may want to rate the tab now too:
select rating
Please do not post tabs as comments. Select "correction" instead!