Oops, an error
Loading. Please wait.

Leverage Of Space Tab

version 2
version 2

Whole song

Interactive

5,581 views 3 this week
1 commentread comment
1 2 3 4 5
x 5
add to favorites
launch autoscroll
font size
0
reset
how to read this tab
guitar tuner
Autoscroll
slow
fast
+/-
esc
set tempo
stop
Help us to improve Ultimate-Guitar.com Take our survey!
×
Author
Band:Red Hot Chili Peppers
Song:Leverage Of Space

Hey this is my first tab, sorry if its bad, but this is such a great song and I can't
any amazing tabs for it, so I made one myself, and I can't get guitar pro or power tab
so here ya go,please enjoy.

  Intro
E|--------------------------------------------------------------------|
B|-8-s-7--5-----5-------8-s-7--5-----5-------8-s-7--5-----8-s-7--5----|
G|-----------7--------------------7--------------------7------------7-|
D|--------------------------------------------------------------------|
A|--------------------------------------------------------------------|
E|--------------------------------------------------------------------|

E|--------------------------------------------------------------------|
B|-8-s-7--5-----5-------------3-------3-------8-s-7--5-----5----------|
G|-----------7----------2-s-4---2-s-4-------------------7-------------|
D|--------------------------------------------------------------------|
A|--------------------------------------------------------------------|
E|--------------------------------------------------------------------|

E|-----------------------------|
B|-8-s-7--5-----8-s-7--5-----5-|
G|-----------7------------7----|
D|-----------------------------|
A|-----------------------------|
E|-----------------------------|

  Verse                                                  repeat twice
E|----12----12----12-------12----12----15----15----15-------15----15-|
B|-12----12----12----12-12----12----17----17----17----17-17----17----|
G|-------------------------------------------------------------------|
D|-------------------------------------------------------------------|
A|-------------------------------------------------------------------|
E|-------------------------------------------------------------------|
(I'm not sure about the strumming its really hard to count so I'll just put the chords
instead)
E|----------------|--------------------------------------------------|
B|-15--13--12-----|----------------12--------15--17------------------|
G|-------------12\|-9--------14-12-x---------x---x-------------------|
D|----------------|-x--------x--x--9---------12--15------------------|
A|----------------|-7--------10-10-----------------------------------|
E|----------------|--------------------------------------------------|

E|---------------|---------------------------------------------------|
B|-12--------15--|-----------------12--------19--17------------------|
G|-x---------x---|-9---------14-12-x---------x---x-------------------|
D|-9---------12--|-x---------x--x--9---------16--14------------------|
A|---------------|-7---------10-10-----------------------------------|
E|---------------|---------------------------------------------------|

  pre-chorus (bass)
G|--------16-16-16-19-19-19-16-19-19-21--------14-14-14-21-21-21-19-19-----|
D|14-14-14-----------------------------12-12-12-----------------------21-19|
A|-------------------------------------------------------------------------|
E|-------------------------------------------------------------------------|

G|----------------21-21-21-19-19-19-------------14-14-14-17-17-17-14-19-17-|
D|--------17-17-17-------------------17-12-12-12---------------------------|
A|15-15-15-------------------------15--------------------------------------|
E|-------------------------------------------------------------------------|

G|16-----------------------------------------------------------------------|
D|--19---------------------------------------------------------------------|
A|-------------------------------------------------------------------------|
E|-------------------------------------------------------------------------|

 chorus (again not sure on strumming but easy to tell when it changes chord)
E|-------|-------|-------|-------|
B|---8---|---7---|---5---|---7---|
G|---9---|---7---|---5---|---7---|
D|---9---|---7---|---5---|---7---|
A|---7---|---5---|---3---|---5---|
E|-------|-------|-------|-------|

  Interlude
E|------------------------------------------------------------------|
B|-8-s-7--5-----5------10-b-12--8-s-7--5-----5-------8-s-7--5-------|
G|-----------7----------------------------7--------------------7----|
D|------------------------------------------------------------------|
A|------------------------------------------------------------------|
E|------------------------------------------------------------------|

E|----------------|
B|-8-s-7--5-----5-|
G|-----------7----|
D|----------------|
A|----------------|
E|----------------|

  Verse
E|----12----12----12-------12----12----15----15----15-------15----15-|
B|-12----12----12----12-12----12----17----17----17----17-17----17----|
G|-------------------------------------------------------------------|
D|-------------------------------------------------------------------|
A|-------------------------------------------------------------------|
E|-------------------------------------------------------------------|

E|---------------------------------------------------|
B|-----------------12--------19--17------------------|
G|-9---------14-12-x---------x---x-------------------|
D|-x---------x--x--9---------16--14------------------|
A|-7---------10-10-----------------------------------|
E|---------------------------------------------------|

  Pre-chorus (this bass bit is slightly different)
G|--------16-16-16-19-19-19-16-19-19-21--------16-16-16-19-19-19-16-21-19--|
D|14-14-14-----------------------------14-14-14--------------------------21|
A|-------------------------------------------------------------------------|
E|-------------------------------------------------------------------------|

 chorus                           bridge
E|-------|-------|-------|-------|-----------------------------------------|
B|---8---|---7---|---5---|---7---|-8---------------------------------------|
G|---9---|---7---|---5---|---7---|-9---------------------------------------|
D|---9---|---7---|---5---|---7---|-9---------------------------------------|
A|---7---|---5---|---3---|---5---|-7---------------------------------------|
E|-------|-------|-------|-------|-----------------------------------------|

  bridge (bass)
G|-------12----12--------12----12---------12-----12---------12-------------|
D|-14-14-----14-----14-14----14-----12--12----12------12--12---------------|
A|-------------------------------------------------------------------------|
E|-------------------------------------------------------------------------|

G|--------12----12---------12----12-----------14----14--------14------14---|
D|-10-10-----10-----10-10-----10------12--12----12-----12--12-----12-------|
A|-------------------------------------------------------------------------|
E|-------------------------------------------------------------------------|

Solo - Lots of Wah, DS-2 and Big Muff... enjoy...

E|-12-|-10-|-8--|-10-|----|----|----|----|
B|-12-|-10-|-8--|-10-|-12-|-10-|-8--|-10-|
G|-12-|-11-|-9--|-11-|-12-|-11-|-9--|-11-|
D|----|----|----|----|-14-|-12-|-10-|-12-|
A|----|----|----|----|----|----|----|----|
E|----|----|----|----|----|----|----|----|
Suggest correction
comments
print report bad tab
1 comment total.
0 reply
Frusciante19 20 Aug 25, 2010 10:11 AM

beautiful job

guest
You may want to rate the tab now too:
select rating
Wanna post a correction for this tab? Suggest correction