Oops, an error
Loading. Please wait.

Long Progression Bass Tab

version 1
version 1

Whole song

3,973 views 1 this week
no commentswrite comment
1 2 3 4 5
1 last vote to show rating
add to favorites
launch autoscroll
font size
0
reset
guitar tuner
Autoscroll
slow
fast
+/-
esc
set tempo
stop
Help us to improve Ultimate-Guitar.com Take our survey!
×
Author
Difficulty
intermediate
-------------------------------------------------------------------------------
                             LONG PROGRESSION - Red Hot Chili Peppers
-------------------------------------------------------------------------------
Tabbed by: Juln.

Tuning: Standard

INTRO

G|-------------------------------------------------|
D|-----------------------------------------13------|
A|--------------13-13--------------------13--13----|
E|-11--11-11-15-------15\---11--11-11-15-------15\-|

VERSE:

           x2                   x2
G|----------12-12-12----|------------------|
D|-------12----------12-|------12-12-12-12-|
A|-10--10---------------|-9-9-9------------|
E|----------------------|------------------|

G|-------------------------------9-------|
D|-------10h12-12-10---------/12---12p10-|
A|-8-8-8-------------8-8-8-8-------------|
E|---------------------------------------|

G|----------------------------------------------------|
D|----------------------------------------------------|
A|-7-7-7-7-7-7\3-3-3-3-3-3-3/5-5-5-5-5-5-5-5/17171717-|
E|----------------------------------------------------|

VERSE FILLS:

                     x2
G|-----------------------------------------|
D|--------------7-7-9-9-------7h9-7h9p7----|
A|-7--7-7-10-10---------777-7-----------10-|
E|-----------------------------------------|

      x2
G|------8-8--|
D|-----8---8-|   
A|-6666------|   
E|-----------|   

CHORUS:
                                    x2
G|------------------------------------------------------------------------|
D|------------------------------------------------------------------------|
A|-x7-7-77--x5-5-55--------------------x3-3-33--x2-2-22-------------------|
E|-------------------x5-5-55--x3-3-33-------------------x0-0-0-0-0-0-0-0-0|

ENDING RIFF:

G|-12----12-14b15r14-12------------------|
D|----14---------------14-12-------------|
A|---------------------------14-12-------|
E|---------------------------------15\0--|



Intro
Verse
Verse Fills
Verse
Chorus
Verse Fills
Verse
Chorus x2
Intro (-Bridge)
Verse
Verse Fills (-Guitar Solo)
Verse
Chorus x2
Ending Riff


| /  slide up
| \  slide down
| h  hammer-on
| p  pull-off
| b  bend
| r  release bend
| ~  vibrato
| +  harmonic
| x  Mute note
===============================================================================
Suggest correction
Give kudos to tab author, rate the tab!
1 2 3 4 5
comments
print report bad tab
guest
You may want to rate the tab now too:
select rating
Wanna post a correction for this tab? Suggest correction