Oops, an error
Loading. Please wait.

Long Progression Tab

version 1
version 1

Whole song

2,573 views 15 this week
2 commentsread comments
1 2 3 4 5
excellent!
x 4
add to favorites
launch autoscroll
font size
0
reset
how to read this tab
guitar tuner
Tab Pro tools
  • play this tab
  • loop segment
  • change instrument
  • show fretboard
  • metronome
Autoscroll
slow
fast
+/-
esc
set tempo
stop
Contributor
-------------------------------------------------------------------------------
                               LONG PROGRESSION - Red Hot Chili Peppers
-------------------------------------------------------------------------------
Tabbed by: Juln

Tuning: Standard

e|---------------------------------------------------------------------------|
B|---------------------------------------------------------------------------|
G|-7---7-7--x-7-7---7--x-7-7--7-7-7\-----------------------------------------|
D|-5---5-5--x-5-5---5--x-5-5--5-5-5\---13--13-13-x-13----13-15---15-15---13--|
A|-7---7-7--x-7-7---7--x-7-7--7-7-7\---13--13-13-x-13----13-13---13-13---13--|
E|---0---0--x-----0-0--x----0-0-0-0----11--11-11-x-11-11----11-11---11-11----|

"Smile..."
e|-----------------------------------------|
B|-----------------------------------------|
G|-12-12-12--12-x-12---12-12---14-14---12--|
D|-12-12-12--12-x-12---12-12---12-12---12--|
A|-10-10-10--10-x-10-10---10-10---10-10----|
E|-----------------------------------------|

"When I'm shying with..."
e|-----------------------------------------|
B|-10-10-10--10-x-10------10---10-10---10--|
G|-11-11-11--11-x-11---11-11---11-11---11--|
D|-12-12-12--12-x-12---12-12---12-12---12--|
A|-9--9--9---9--x-9--9----9--9----9---9----|
E|-----------------------------------------|

"But I love..."
e|-----------------------------------------|
B|-----------------------------------------|
G|-10-10-10--10-x-10---10-10---12-12---12--|
D|-10-10-10--10-x-10---10-10---10-10---10--|
A|-8--8--8---8--x-8--8----8--8----8---8----|
E|-----------------------------------------|

"Everything about you precious..."
e|--------------------------------|
B|-8-8-8--8-x-8---8-8----8-8---8--|
G|-9-9-9--9-x-9---9-9----9-9---9--|
D|-9-9-9--9-x-9---9-9----9-9---9--|
A|-7-7-7--7-x-7--7--7--7----7--7--|
E|--------------------------------|

"Sweet child precious..."
e|---------------------------------------------------|
B|---------------------------------------------------|
G|-5-5-5--5-x-5-5---5/-7-x---7-7-x---7-7-7-x---7-7-7-|
D|-5-5-5--5-x-5-5---5/-7-x---7-7-x---7-7-7-x---7-7-7-|
A|-3-3-3--3-x-3-3-3-3/-5-x-5-5-5-x-5-5-5-5-x-5-5-5-5-|
E|---------------------------------------------------|

Then you play it all again from the beginning for the other half of the verse

CHORUS:
e|----------------------------------------------------------------|
B|-----------------------------------------------------------0-0--|
G|-x-x---9-9-x---7-7-x---------------x---5-5-x---4-4-x---0-0-0-0--|
D|-x-x---9-9-x---7-7-x---7-7-x---5-5-x---5-5-x---4-4-x---2-2-2-2--|
A|-x-x-7-7-7-x-5-5-5-x---7-7-x---5-5-x-3-3-3-x-2-2-2-x---2-2-2-2--|
E|-------------------x-5-5-5-x-3-3-3-x---------------x-0-0-0---0--|

The second verse starts with the guitar doing some feedback noises
Then it restarts from this part of the verse tab above
e|---------------------------------------|
B|---------------------------------------|
G|---------------------------------------|
D|-13--13-13-x-13----13-15---15-15---13--|
A|-13--13-13-x-13----13-13---13-13---13--|
E|-11--11-11-x-11-11----11-11---11-11----|

Then chorus again...
And then the breakdown:
e|-------------------------------------------|
B|-------------------------------------------|
G|---12--12-12---12----------12--12-12---12--|
D|-------------------------------------------|
A|-------------------------------------------|
E|-11--11------11---11-11-11---11------11----|

"Smile..."                "...'cus it's alright..."        "I'll supply..."
e|----------------------------------------------------------------------------|
B|-------12----------12----------10------10------------10------------10-------|
G|----12-------12-------------11------11-------------10--10------10----10--10-|
D|----------------12-------12----------------------10------10--10--10----10---|
A|-10-------10------------9---------9-------------8-----------8---------------|
E|----------------------------------------------------------------------------|

e|-------------------------------------------------------------------|
B|-------------------------------------------------------------------|
G|-----------------5-5-5--5-x-5-5---5/-7-x---7-7-x---7-7-7-x---7-7-7--|
D|-10--9--7-------5-5-5--5-x-5-5---5/-7-x---7-7-x---7-7-7-x---7-7-7--|
A|----------10\---3-3-3--3-x-3-3-3-3/-5-x-5-5-5-x-5-5-5-5-x---5-5-5--|
E|-------------------------------------------------------------------|

Solo:
e|-----------------------------------------------------------------|
B|-----------------------------------------------------------------|
G|-----12-11----12-11----12-11------------------------------10-12--|
D|-12~-------9~-------9~-------9~--8b9r8-----8b9r8--8-10-12--------|
A|---------------------------------------10~-----------------------|
E|-----------------------------------------------------------------|

e|------------------------------------------------------------------|
B|------------------------------------------------------------------|
G|-12b14-14r12~--12~--12~---12b14r12~--12~--12b14r12-11~--11~--11~--|
D|------------------------------------------------------------------|
A|------------------------------------------------------------------|
E|------------------------------------------------------------------|

e|-----------------------------------------------------|
B|------------------------------------12-13-15-15b17~--|
G|-14b16r14--12-12b14r12~--12-11-12-14-----------------|
D|-----------------------------------------------------|
A|-----------------------------------------------------|
E|-----------------------------------------------------|

Then comes the chorus again and there's a little solo on this one that goes:

e|----17b19~--19~--19~--19~--19~--17b19--19r17-14-15------|
B|---------------------------------------------------17~--|
G|--------------------------------------------------------|
D|--------------------------------------------------------|
A|--------------------------------------------------------|
E|--------------------------------------------------------|

e|----17b19~--19~--19~--19~--19~--17b19--19r17-14-15------|
B|---------------------------------------------------17~--|
G|--------------------------------------------------------|
D|--------------------------------------------------------|
A|--------------------------------------------------------|
E|--------------------------------------------------------|

e|--22b24~--24~----24~------24~----24r22---------|
B|---------------------------------------17~-----|
G|-----------------------------------------------|
D|-----------------------------------------------|
A|-----------------------------------------------|
E|-------------------------------------------0---|



************************************

| /   slide up
| \   slide down
| h   hammer-on
| p   pull-off
| ~   vibrato
| +   harmonic
| x   Mute note
| b   Bend
| pb  Pre-bend
| br  Bend release
| pbr Pre-bend release
| brb Bend release bend

************************************
comments
print report bad tab
2 comments total.
0 reply
redhotsexmagic wrote on January 28 2013, 09:36 pm

this is 100% it..great work!

0 reply
Juln. wrote on February 12 2013, 10:05 am

thanks buddy!

I want to post or [tab]
guest
You may want to rate the tab now too:
select rating
Please do not post tabs as comments. Select "correction" instead!