Oops, an error
Loading. Please wait.

Look Around Tab

version 1
version 1

Intro

Whole song

Interactive

16,888 views 9 this week
no commentswrite comment
1 2 3 4 5
accurate
x 3
add to favorites
launch autoscroll
font size
0
reset
how to read this tab
guitar tuner
Autoscroll
slow
fast
+/-
esc
set tempo
stop
Help us to improve Ultimate-Guitar.com Take our survey!
×
Contributor
majorseventh 1,897
-------------------------------------------------------------------------------
                             Look Around  - Red Hot Chili Peppers

Tabbed from RHCP website on 8/25/11 before the release of I'm With You...its the opening
song in the video at this link:

http://www.youtube.com/user/RHCPtv#p/u/1/zb5zOU9mvno

-------------------------------------------------------------------------------
Tabbed by:Chris Warner
Email:cwarner3000@gmail.com

Tuning:standard

Flea uses these chords in baseline Gm Eb F Gm, but Josh just plays a Gm7 chord on the 
10th fret of guitar hammering on the B string and occasionally adding the 13th fret of 
high E string with his pinky.

Gm7
e|-10-----------------------------------------------13-13-13-13------------|
B|-10-h-11--11--11--10--11-11-11-11-11--11-11-10-11-11-11-11-11------------|
G|-10---10--10--10--10--10-10-10-10-10--10-10-10-10-10-10-10-10------------|
D|-------------------------------------------------------------------------|
A|-10---10--10--10--10--10-10-10-10-10--10-10-10-10------------------------|
E|-------------------------------------------------------------------------|

Gm7
e|-10-----------------------------------------/-15-15-13-15----------------|
B|-10-h-11--11--11--10--11-11-11-11-11--11-11-/-15-15-13-15----------------|
G|-10---10--10--10--10--10-10-10-10-10--10-10------------------------------|
D|-------------------------------------------------------------------------|
A|-10---10--10--10--10--10-10-10-10-10--10-10------------------------------|
E|-------------------------------------------------------------------------|


************************************

| /   slide up
| \   slide down
| h   hammer-on
| p   pull-off
| ~   vibrato
| +   harmonic
| x   Mute note
| b   Bend
| pb  Pre-bend
| br  Bend release
| pbr Pre-bend release
| brb Bend release bend

************************************
comments
We did not receive enough feedback on this tab! Please rate:
print report bad tab
1 2 3 4 5
I want to post or [tab]
guest
You may want to rate the tab now too:
select rating
Please do not post tabs as comments. Select "correction" instead!