Oops, an error
Loading. Please wait.

Look Around Tab

version 1
version 1

Whole song

Interactive

98,091 views 99 this week
2 commentsread comments
1 2 3 4 5
x 13
add to favorites
launch autoscroll
font size
0
reset
how to read this tab
guitar tuner
backing track
0:00
0:00
Autoscroll
slow
fast
+/-
esc
set tempo
stop
-------------------------------------------------------------------------------
                             Look Around - Red Hot Chili Peppers
-------------------------------------------------------------------------------
Tabbed by: Thomas Carreau
Email: thomaskaro@hotmail.fr

Tuning: Standard

e|---10-10------13-13-13-10-10------15-15-13-15---|
B|---10-h11-...-11-11-11-10h11--...-15-15-13-15---|
G|---10-10---------------10-10--------------------| 2x (with slide down at the end)
D|------------------------------------------------|
A|------------------------------------------------|
E|------------------------------------------------|

e|---13-13-15------13-13-15------13-13-15---|
B|---13-13-15------13-13-15------13-13-15---|
G|------------------------------------------|
D|------------------------------------------|
A|------------------------------------------|
E|------------------------------------------|

e|-----------------------------------------------------------------------------|
B|--------------------------------13-15~--15\13~-------------------11----------|
G|------------------------10-12~------------------14-15-12~--10b12----12-------|
D|----------------10-12~-------------------------------------------------12~---|
A|---10~--12-13~---------------------------------------------------------------|
E|-----------------------------------------------------------------------------|

e|---10-10------13-13-13-10-10------15-15-13-15---|
B|---10-h11-...-11-11-11-10h11--...-15-15-13-15---|
G|---10-10---------------10-10--------------------| 2x (with slide down at the end)
D|------------------------------------------------|
A|------------------------------------------------|
E|------------------------------------------------|

e|---13b15-10--8-8-10~--8h10p8-6--6-8b10-8b10-8b10-8b10r8p6~---|
B|-------------------------------------------------------------|
G|-------------------------------------------------------------|
D|-------------------------------------------------------------|
A|-------------------------------------------------------------|
E|-------------------------------------------------------------|

e|---13-13-15---|
B|---13-13-15---|
G|--------------|
D|--------------|
A|--------------|
E|--------------|

e|-----------------------------------------------------------------------------|
B|--------------------------------13-15~--15\13~-------------------11----------|
G|------------------------10-12~------------------14-15-12~--10b12----12-------|
D|----------------10-12~-------------------------------------------------12~---|
A|---10~--12-13~---------------------------------------------------------------|
E|-----------------------------------------------------------------------------|

e|---10-10------13-13-13-10-10------15-15-13-15---|
B|---10-h11-...-11-11-11-10h11--...-15-15-13-15---|
G|---10-10---------------10-10--------------------| 2x (with slide down at the end)
D|------------------------------------------------|
A|------------------------------------------------|
E|------------------------------------------------|

e|----------------------------------------------------------------------------------|
B|---12------12------12-12-12-12-12-12-12-12---12-12-12-12-12-12-12-12-12--12-------|
G|---12------12------12-12-12-12-12-12-12-12---12-12-12-12-12-12-12-12-12--12-...---|
D|---12------12------12-12-12-12-12-12-12-12---12-12-12-12-12-12-12-12-12--12-------|
A|----------------------------------------------------------------------------------|
E|----------------------------------------------------------------------------------|

e|---------------------------------------------------------------------------------------|
B|---------------------------------------------------------------------------------------|
G|--------------3-5b7r5-3------------3h5p3-3h5p3-3h5p3------------3-3----3-3----3-5b7r5-3|
D|---3h5~---3h5-----------3h5~---3h5------5-----5-----5-3h5~---3h5----3h5----3h5---------|
A|---------------------------------------------------------------------------------------|
E|---------------------------------------------------------------------------------------|
 |                                                                                       |
e|---------------------------------------------------------------------------------------|
B|---------------------------------------------------------------------------------------|
G|-------3h5p3------3h5p3--------15h17p15---------15h17p15-------------------------------|
D|---3h5------5-3h5------5-15h17---------17-15h17---------17--17\------------------------|
A|---------------------------------------------------------------------------------------|
E|---------------------------------------------------------------------------------------|

/!\ This solo isn't the solo of the album, it's mine. /!\

e|---10-10------13-13-13-10-10------15-15-13-15---|
B|---10h11--...-11-11-11-10h11--...-15-15-13-15---|
G|---10-10---------------10-10--------------------| 3x
D|------------------------------------------------|
A|------------------------------------------------|
E|------------------------------------------------|

e|---10-10------13-13-13-10-10--------------|
B|---10h11--...-11-11-11-10h11--...---------|
G|---10-10---------------10-10--------------|
D|------------------------------------------|
A|------------------------------------10~---|
E|------------------------------------------|

If you have any questions, send me an email.
It's my first tab ! Enjoy ! :)

************************************

| h  Hammer-on
| p  Pull-off
| r  Release
| b  Bend
| \  Slide down
| ~  Vibrato

************************************
Suggest correction
comments
print report bad tab
2 comments total.
0 reply
lukat93 10 Sep 10, 2011 06:18 AM

great tab, just one thing wrong, when the interlude comes it's not G (12 12 12) but it's Em (14 12 12)

0 reply
D_Brunk_182 10 May 04, 2012 06:47 PM

great tab but i don't understand the solo.. maybe i need to just play with it more. i know it's your own and not original to the song so maybe that's why it gets confusing. either way, thanks man!

guest
Wanna post a correction for this tab? Suggest correction