Oops, an error
Loading. Please wait.

Love Rollercoaster Bass Tab

version 2
version 2

Whole song

Interactive

1,750 views 3 this week
no commentswrite comment
1 2 3 4 5
2 more votes to show rating
add to favorites
launch autoscroll
font size
0
reset
guitar tuner
Autoscroll
slow
fast
+/-
esc
set tempo
stop
Help us to improve Ultimate-Guitar.com Take our survey!
×
Author
song:love rollercoaster
written by:Ralph Middlebrooks, James Williams, Marshell Jones, Leroy Bonner, Clarence
Satchell, Willie Beck, and Marvin R. Pierce

0:00 figure 1 (slap E and A string and pop D and G string)
      
G|---------------------------------------|------------------------|
D|-----10------8--------7----------------|----7-------8-------10--|
A|---------------------------------------|------------------------|
E|-/8------/6------/5----------------(5)-|-5------/6------/8------|

1:01 Bridge

|------------|------------|---------------|--------------10----10-12/15-|
|------5-----|-5----------|-------(5)---5-|---------/12-----12----------|
|------------|------------|---------------|-----------------------------|
|--3---------|-3----------|-3-------------|-3---------------------------|

|-------------------|-----------|----------------|--------------|
|------3-4-5--3-4-5-|-5---------|-5-----5-----5--|----5---6--7\-|
|-------------------|-----------|----------------|--------------|
|---3---------------|-3---------|-3-----3--------|--------------|

3:39 Outro

|-----5p-0--5--3--------------------------------|
|-----------------------------------------------|
|-----------------5--4--3p-0--1--3--1p-0--1h-3--|
|-3---------------------------------------------|

|----------------------------------|
|-----5p-0--5--3-------------------|
|-----------------5--4--3--p-0-----|
|-3-----------------------------1--|

|-----5p-0--5--3--------------------------------|
|-----------------------------------------------|
|-----------------5--4--3p-0--1--3--1p-0--1h-3--|
|-3---------------------------------------------|

|------------------------------------------|
|-----2--3p-2------------------------------|
|--------------3--1--3---(3)--1--3--1------|
|-3-------------------------------------3--|

|------|-----------|------|-12---------10-12/15--15-17\-|-------|----------|
|---5--|-5--5--5---|-5----|------5/12-------------------|-5-----|-5----5---|
|------|-----------|------|-10--------------------------|-------|----------|
|---3--|-3-----3---|-3----|-----------------------------|-3-----|-3----3---|

|------|------|---------------------------------|--------------------------|
|---5--|---5--|-----5---0-3-0-5-0-3-0-2-3-0-----|--------------------7/8-10|
|------|------|---------------------------------|--------------------------|
|---3--|---3--|-3-----------------------------0-|-3-3--3--0--3--X--3/5/6--8|

well thats it, and im 100% sure its correct.
peace out
Suggest correction
Give kudos to tab author, rate the tab!
1 2 3 4 5
comments
print report bad tab
guest
You may want to rate the tab now too:
select rating
Wanna post a correction for this tab? Suggest correction