Oops, an error
Loading. Please wait.

Love Rollercoaster Bass Tab

version 3
version 3

Whole song

Interactive

6,708 views 3 this week
no commentswrite comment
1 2 3 4 5
2 more votes to show rating
add to favorites
launch autoscroll
font size
0
reset
guitar tuner
Autoscroll
slow
fast
+/-
esc
set tempo
stop
Help us to improve Ultimate-Guitar.com Take our survey!
×
Author
Tabbed by : SlashMasterZ

So, here it is the awesome "Love Roller Coaster". I love this song, and have known it on 
for years. But I then discovered that there was not a decent tab on the net, so I got 
to it. Here it is, enjoy :).

Theres some really weird noises, but there is this little bit that the bass does. If you 
hear, then thats what it is, if you can't, there dont worry.

Intro part 1 :

G --------------------------------------------------------------------------|
D --------------------------------------------------------------------------|
A --------------------------------------------------------------------------|
E ---3-3-4-4-6--------------------------------------------------------------|

For the next part,its a few slides that go like this.

Intro Part 2:

G --------------------------------------------------------------------------|
D --------------------------------------------------------------------------|
A --------------------------------------------------------------------------|
E ---1///17\7----1///17\7----1///17\7-1///17\7------------------------------|

When the singing kicks in, its a funky little slap and pop riff.

Intro Part 3 :

G --------------------------------------------------------------------------|
D ----8---6---5------5---6---8----------------------------------------------|
A --------------------------------------------------------------------------|
E --6---4---3------3---4---6------------------------------------------------|
    S P S P S P    S P S P S P

Now for the "Your love is like a roller coaster" chorus, which goes a little bit like this.

G ------|-------------------------------------------------------------------|
D ------|------------3-5----------------------------------------------------|
A ------|--------3-5--------------------------------------------------------|
E --3---|----3-6------------------3-4-5-------------------------------------|
    ^                             ^
Just strike                     This is played as a sort of interlude into
This note                       the first verse.
every now
And again.

VERSE 1 : PLAY THE SAME RIFF AS INTRO PART 3.

CHORUS : SAME CHORUS

VERSE 2 : PLAY NOTHING

Now, after all that annoying capital letters thingy, heres for the outro, from what I 
hear it goes like this.

G --------------------------------------------------------------------------|
D --------------------------------------------------------------------------|
A ----7p06p05p04p03p0-------------------------------------------------------|
E --0-----------------3-----------------------------------------------------|

Well, thats it, hope you enhoy it :).
Suggest correction
Give kudos to tab author, rate the tab!
1 2 3 4 5
comments
print report bad tab
guest
You may want to rate the tab now too:
select rating
Wanna post a correction for this tab? Suggest correction