Oops, an error
Loading. Please wait.

Lovin And Touchin Bass Tab

version 2
version 2

Whole song

Interactive

1,254 views 1 this week
no commentswrite comment
1 2 3 4 5
accurate
x 4
add to favorites
launch autoscroll
font size
0
reset
guitar tuner
Autoscroll
slow
fast
+/-
esc
set tempo
stop
Help us to improve Ultimate-Guitar.com Take our survey!
×
Author
Difficulty
G|-4-----4-----|-5-----5-----|-7-----7-----|-5-----5------|
D|---5-----5---|---5-----5---|---5-----5---|---5-----5----|
A|-----5-----5-|-----5-----5-|-----5-----5-|-----5-----5--|
E|-------------|-------------|-------------|--------------|
   1 2 3 4 5 6   1 2 3 4 5 6   1 2 3 4 5 6   1 2 3 4 5 6

G|-4-----4-----|-5-----5-----|-7-----7-----|-5-----5------|
D|---5-----5---|---5-----5---|---5-----5---|---5-----5----|
A|-----5-----5-|-----5-----5-|-----5-----5-|-----5-----5--|
E|-------------|-------------|-------------|--------------|
   1 2 3 4 5 6   1 2 3 4 5 6   1 2 3 4 5 6   1 2 3 4 5 6

G|-6-----6-----|-7-----7-----|-9-----9-----|-7-----7------|
D|---7-----7---|---7-----7---|---7-----7---|---7-----7----|
A|-----0-----0-|-----0-----0-|-----0-----0-|-----0-----0--|
E|-------------|-------------|-------------|--------------|
   1 2 3 4 5 6   1 2 3 4 5 6   1 2 3 4 5 6   1 2 3 4 5 6

G|-6-----6-----|-7-----7-----|-9-----9-----|-7-----7------|
D|---7-----7---|---7-----7---|---7-----7---|---7-----7----|
A|-----0-----0-|-----0-----0-|-----0-----0-|-----0-----0--|
E|-------------|-------------|-------------|--------------|
   1 2 3 4 5 6   1 2 3 4 5 6   1 2 3 4 5 6   1 2 3 4 5 6

G|-12----12----|-12----12----|-12----12----|-12----12-----|
D|---12----12--|---12----12--|---12----12--|---12----12---|
A|-----0-----0-|-----0-----0-|-----0-----0-|-----0-----0--|
E|-------------|-------------|-------------|--------------|
   1 2 3 4 5 6   1 2 3 4 5 6   1 2 3 4 5 6   1 2 3 4 5 6

G|---------||
D|---------||
A|-0-------||
E|---------||
Suggest correction
comments
print report bad tab
guest
You may want to rate the tab now too:
select rating
Please do not post tabs as comments. Select "correction" instead!