Oops, an error
Loading. Please wait.

Magic Johnson Bass Tab

version 2
version 2

Whole song

Interactive

3,602 views 6 this week
no commentswrite comment
1 2 3 4 5
accurate
x 3
add to favorites
launch autoscroll
font size
0
reset
guitar tuner
Autoscroll
slow
fast
+/-
esc
set tempo
stop
Help us to improve Ultimate-Guitar.com Take our survey!
×
Author
Difficulty
intermediate
I havn't seen any correct tabs for this song yet so ill give you my version. There are a 
variations in the verse and chorus but they're pretty easy to figure out so just listen 
them.

Intro

G-----------------------------------------------------------------------|
D-----------------------------------------------------------------------|
A-----------------------------------------------------------------------|
E-0-0-0--00-0-00-----------00-0-00-0------------------------------------|

Verse 1

G--------------------------------------------------------------------------|
D--------------------------------------------------------------------------|
A--------------------------------------------------------------------------|
E-0--0--00-0-00-----------0-0-00--0-0-0-00---------------------------------|

Verse 2/Chorus

G-----------------------------------------------------------------------|
D-----------------------------------------------------------------------|
A-----------------------------------------------------------------------|
E-0-0-0--00-0-00----------0-0-00--0-0-0-00------------------------------|

Solo 1

G-----------------------------------------------------------------------|
D-----------------------------------------------------------------------|
A-5h7p5---------3-53-----5h7p5------------------------------------------|
E-------7-5-3-5-----55---------7-5-3--0-0-0-----------------------------|

G-----------------------------------------------------------------------|
D-----------------------------------------------------------------------|
A-5h7p5---------3-53-----5h7p5--------7-7-7-----------------------------|
E-------7-5-3-5-----55---------7-5-3------------------------------------|

G-----------------------------------------------------------------------|
D-----------------------------------------------------------------------|
A-5h7p5---------3-53-----5h7p5------------------------------------------|
E-------7-5-3-5-----55---------7-5-3--0-0-0-----------------------------|

G--------------------------------3-5------------------------------------|
D--------------------------3--55----------------------------------------|
A-5h7p5---------3-53----55----------------------------------------------|
E-------7-5-3-5-----55--------------------------------------------------|

Solo 2

G--------------------------------------------------------------------------|
D-5h7p5---------3-53-----5h7p5---------------------------------------------|
A-------7-5-3-5-----55---------7-5-3--0-0-0--------------------------------|
E--------------------------------------------------------------------------|


G-----------------------------------------------------------------------|
D-5h7p5---------3-53-----5h7p5--------7-7-7-----------------------------|
A-------7-5-3-5-----55---------7-5-3------------------------------------|
E-----------------------------------------------------------------------|


G-------------------------------------------------------------------------|
D-5h7p5---------3-53-----5h7p5--------------------------------------------|
A-------7-5-3-5-----55---------7-5-3--0-0-0-------------------------------|
E-------------------------------------------------------------------------|

G--------------------------------3-5--------------------------------------|
D-5h7p5---------3-53-------3--55------------------------------------------|
A-------7-5-3-5-----55--55------------------------------------------------|
E-------------------------------------------------------------------------|
Suggest correction
Give kudos to tab author, rate the tab!
1 2 3 4 5
comments
print report bad tab
guest
You may want to rate the tab now too:
select rating
Please do not post tabs as comments. Select "correction" instead!