Oops, an error
Loading. Please wait.

Magpies On Fire Tab

4,568 views 6 this week
6 commentsread comments
1 2 3 4 5
excellent!
x 6
add to favorites
launch autoscroll
font size
0
reset
how to read this tab
guitar tuner
Tab Pro tools
  • play this tab
  • loop segment
  • change instrument
  • show fretboard
  • metronome
×
Best way to learn
"Magpies On Fire"
Autoscroll
slow
fast
+/-
esc
set tempo
stop
Contributor
A good b-side, no one tabbed it so I'm gonna tab it.

Intro:

Gtr.1-acoustic
Gtr.2-clean

Both guitars play the same thing.

Gtr.1
  G         Gm       Eb               Db
|-5--5--5--5-5--5-5--6--6--6--6--6-6--4--4--4----------|
|-3--3--3--3-3--3-3--8--8--10-10-8-8--6--6--6--6-4-----|
|-4--4--4--4p3--3-3--8--8--8--8--8-8--6--6--6------6-5-|
|-5--5--5--5-5--5-5--8--8--8--8--8-8--6--6--6----------|
|-0--0--0--0-0--0-0--6--6--6--6--6-6--4--4--4----------|
|-0--0--0--0-0--0-0--6--6--6--6--6-6--4--4--4----------|

Gtr.2

  G          Gm                     Eb               Db
|-55-5--5-5--5-5-----5-----5-----5--6--6--6--6--6-6--4--4--4----------|
|-33-3--3-3--3---3-----3-----3------8--8--10-10-8-8--6--6--6--6-4-----|
|-44-4--4-4--3-----3-----3-----3----8--8--8--8--8-8--6--6--6------6-5-|
|-55-5--5-5--5----------------------8--8--8--8--8-8--6--6--6----------|
|-----------------------------------6--6--6--6--6-6--4--4--4----------|
|-----------------------------------6--6--6--6--6-6--4--4--4----------|

Verse:Both guitars

  F    C    Dm
|-1-1-------1-1-1-1-1h3-3p1-|
|-1-1--1-1--3-3-3-3-3---3---|
|-2-2--0-0--2-2-2-2-2---2---|
|-3-3--2-2--0-0-0-0-0---0---|
|-3-3--3-3------------------|
|-1-1-----------------------|

 F    C    Dm
|-1-1-------1-1-1-1-1h3-3p1-|
|-1-1--1-1--3-3-3-3-3---3---|
|-2-2--0-0--2-2-2-2-2---2---|
|-3-3--2-2--0-0-0-0-0---0---|
|-3-3--3-3------------------|
|-1-1-----------------------|

 F    C    Dm            Bb
|-1-1-------1-1-1-1-1-1--6-6-6-6--|
|-1-1--1-1--3-3-3-3-3-3--6-6-6-6--|
|-2-2--0-0--2-2-2-2-2-2--7-7-7-7--|
|-3-3--2-2--0-0-0-0-0-0--8-8-8-8--|
|-3-3--3-3---------------8-8-8-8--|
|-1-1--------------------6-6-6-6--|

Then again:

 F    C    Dm
|-1-1-------1-1-1-1-1h3-3p1-|
|-1-1--1-1--3-3-3-3-3---3---|
|-2-2--0-0--2-2-2-2-2---2---|
|-3-3--2-2--0-0-0-0-0---0---|
|-3-3--3-3------------------|
|-1-1-----------------------|

 F    C    Dm
|-1-1-------1-1-1-1-1h3-3p1-|
|-1-1--1-1--3-3-3-3-3---3---|
|-2-2--0-0--2-2-2-2-2---2---|
|-3-3--2-2--0-0-0-0-0---0---|
|-3-3--3-3------------------|
|-1-1-----------------------|

 F    C    Dm            Bb
|-1-1-------1-1-1-1-1-1--6-6-6-6--|
|-1-1--1-1--3-3-3-3-3-3--6-6-6-6--|
|-2-2--0-0--2-2-2-2-2-2--7-7-7-7--|
|-3-3--2-2--0-0-0-0-0-0--8-8-8-8--|
|-3-3--3-3---------------8-8-8-8--|
|-1-1--------------------6-6-6-6--|

Pre-chorus:

Gtr.1
  Am               Eb       Db
|-5-5-5-5-5-5-5-5--6-6-6-6--4-4-4--|
|-5-5-5-5-5-5-5-5--8-8-8-8--6-6-6--|
|-5-5-5-5-5-5-5-5--8-8-8-8--6-6-6--|
|-7-7-7-7-7-7-7-7--8-8-8-8--6-6-6--|
|-7-7-7-7-7-7-7-7--6-6-6-6--4-4-4--|
|-5-5-5-5-5-5-5-5--6-6-6-6--4-4-4--|

Gtr.2

|------------------------------------------------|
|--8b~----8b~----------8--8br-8--6---------------|
|------7------7--7--8---------------6-----8b---5-|
|------------------------------------------------|
|------------------------------------------------|
|------------------------------------------------|


Chorus:both guitars

  F   Eb Bb
|-8---6--6---|
|-10--8--6---|
|-10--8--7---|x4
|-10--8--8---|
|-8---6--8---|
|-8---6--6---|

  Am   Dm    Gm    Eb    Bb
|-5-5--55-5--33-3--66-6--66-6-66-6-66-6-66--|
|-5-5--66-6--33-3--88-8--66-6-66-6-66-6-66--|
|-5-5--77-7--33-3--88-8--77-7-77-7-77-7-77--|
|-7-7--77-7--55-5--88-8--88-8-88-8-88-8-88--|
|-7-7--55-5--55-5--66-6--88-8-88-8-88-8-88--|
|-5-5--55-5--33-3--66-6--66-6-66-6-66-6-66--|

Gtr.1
  Am               Eb       Db
|-5-5-5-5-5-5-5-5--6-6-6-6--4-4-4--|
|-5-5-5-5-5-5-5-5--8-8-8-8--6-6-6--|
|-5-5-5-5-5-5-5-5--8-8-8-8--6-6-6--|
|-7-7-7-7-7-7-7-7--8-8-8-8--6-6-6--|
|-7-7-7-7-7-7-7-7--6-6-6-6--4-4-4--|
|-5-5-5-5-5-5-5-5--6-6-6-6--4-4-4--|

Gtr.2

|------------------------------------------------|
|--8b~----8b~----------8--8br-8--6---------------|
|------7------7--7--8---------------6-----8b---5-|
|------------------------------------------------|
|------------------------------------------------|
|------------------------------------------------|

Back to verse:


  F    C    Dm
|-1-1-------1-1-1-1-1h3-3p1-|
|-1-1--1-1--3-3-3-3-3---3---|
|-2-2--0-0--2-2-2-2-2---2---|
|-3-3--2-2--0-0-0-0-0---0---|
|-3-3--3-3------------------|
|-1-1-----------------------|

 F    C    Dm
|-1-1-------1-1-1-1-1h3-3p1-|
|-1-1--1-1--3-3-3-3-3---3---|
|-2-2--0-0--2-2-2-2-2---2---|
|-3-3--2-2--0-0-0-0-0---0---|
|-3-3--3-3------------------|
|-1-1-----------------------|

 F    C    Dm            Bb
|-1-1-------1-1-1-1-1-1--6-6-6-6--|
|-1-1--1-1--3-3-3-3-3-3--6-6-6-6--|
|-2-2--0-0--2-2-2-2-2-2--7-7-7-7--|
|-3-3--2-2--0-0-0-0-0-0--8-8-8-8--|
|-3-3--3-3---------------8-8-8-8--|
|-1-1--------------------6-6-6-6--|


Chorus:both guitars

  F   Eb Bb
|-8---6--6---|
|-10--8--6---|
|-10--8--7---|x4
|-10--8--8---|
|-8---6--8---|
|-8---6--6---|

Gtr.1

Am Dm Gm Eb Am Dm Gm Eb Am Dm Gm Eb Bb

Gtr.2

   Am           Dm             Gm            Eb
|---------5-------------5---------------------------------|
|-----------5---------6---6-------------------------8-----|
|-------5-----5-----7-------7---------3----------8----8---|x3
|-----7-----------7----------------5----5------8--------8-|
|---7-----------5----------------5--------5--6------------|
|-5----------------------------3--------------------------|

  Bb
|-6-6-6-6-6-6-6-|
|-6-6-6-6-6-6-6-|
|-7-7-7-7-7-7-7-|
|-8-8-8-8-8-8-8-|
|-8-8-8-8-8-8-8-|
|-6-6-6-6-6-6-6-|

Chorus again:

  F   Eb Bb
|-8---6--6---|
|-10--8--6---|
|-10--8--7---|x4
|-10--8--8---|
|-8---6--8---|
|-8---6--6---|

End on:

Gtr.1

  Am   Dm    Gm    Eb    Bb
|-5-5--55-5--33-3--66-6--6-|
|-5-5--66-6--33-3--88-8--6-|
|-5-5--77-7--33-3--88-8--7-|
|-7-7--77-7--55-5--88-8--8-|
|-7-7--55-5--55-5--66-6--8-|
|-5-5--55-5--33-3--66-6--6-|

Gtr.2

   Am           Dm             Gm            Eb             Bb
|---------5-------------5-----------------------------------6--|
|-----------5---------6---6-------------------------8-------6--|
|-------5-----5-----7-------7---------3----------8----8-----7--|
|-----7-----------7----------------5----5------8--------8---8--|
|---7-----------5----------------5--------5--6--------------8--|
|-5----------------------------3----------------------------6--|

That's it.Hope it helps.
comments
print report bad tab
6 comments total. Showing first comments.
0 reply
Dimitris_RHCP wrote on February 4 2013, 10:01 am

Nice man! :)

0 reply
linkme620 wrote on February 14 2013, 08:59 am

excelent :D

0 reply
Dimitris_RHCP wrote on April 8 2013, 07:20 am

I think that intro is:

|-5--5--5--5-5--5-5--6--6--6--6--6-6--4--4--4----------|
|-3--3--3--3-3--3-3--8--8--10-10-8-8--6--6--6--6-4-----|
|-4--4--4--4p3--3-3--8--8--8--8--8-8--6--6--6------6-5-|
|-5--5--5--5-5--5-5--8--8--8--8--8-8--6--6--6----------|
|-0--0--0--0-0--0-0--6--6--6--6--6-6--4--4--4----------|
|-0--0--0--0-0--0-0--6--6--6--6--6-6--4--4--4----------|

I want to post or [tab]
guest
You may want to rate the tab now too:
select rating
Please do not post tabs as comments. Select "correction" instead!