Oops, an error
Loading. Please wait.

Make You Feel Better Tab

version 2
version 2

Whole song

46,392 views 15 this week
14 commentsread comments
1 2 3 4 5
x 21
add to favorites
launch autoscroll
font size
0
reset
how to read this tab
guitar tuner
Autoscroll
slow
fast
+/-
esc
set tempo
stop
Help us to improve Ultimate-Guitar.com Take our survey!
×
Tuning
E A D G B E
Played in bar chords

Verse:
E minor B minor C major G major

Chorus:
G major D major E minor C major


Solo:

e -----14-15-/-17b19rb17-----|
B -15--------/---------------|
G -----------/---------------|
D -----------/---------------|
A -----------/---------------|
E -----------/---------------|

e ----14--15-/-----------------|
B -15--------/---15b17 b17 b17-|
G -----------/-----------------|
D -----------/-----------------|
A -----------/-----------------|
E -----------/-----------------|


e -----14-15-/-17b19rb17-----|
B -15--------/---------------|
G -----------/---------------|
D -----------/---------------|
A -----------/---------------|
E -----------/---------------|


e -----------/------------/---------------------/-------------15-/
B -15--13-12-/-12h13p12---/---------------------/----------------/
G -----------/---------12-/-14b16rb14--14b16rb14/-12-------------/
D -----------/------------/---------------------/----------------/
A -----------/------------/---------------------/----------------/
E -----------/------------/---------------------/----------------/
Suggest correction
comments
print report bad tab
14 comments total. Showing first comments.
0 reply
tornoutlaw 10 May 12, 2006 05:06 AM

Pretty good tab, thanks. Does anyone else think this song has a hint of R.E.M in it? Just a thought.

0 reply
IpodInaBottle 51 May 12, 2006 02:04 PM

good tab cant find the lyrics anywhere!!!

reminds me of bloc party in the verses

0 reply
HurricaneSG 51 May 14, 2006 04:17 PM

so easy but nice :)

guest
You may want to rate the tab now too:
select rating
Wanna post a correction for this tab? Suggest correction