Oops, an error
Loading. Please wait.

Make You Feel Better Tab

version 3
version 3

Whole song

7,153 views 9 this week
1 commentread comment
1 2 3 4 5
accurate
x 6
add to favorites
launch autoscroll
font size
0
reset
how to read this tab
guitar tuner
Autoscroll
slow
fast
+/-
esc
set tempo
stop
Help us to improve Ultimate-Guitar.com Take our survey!
×
Author
----------------------------------------------------------------------------
             Make You Feel Better - Red Hot Chili Peppers
----------------------------------------------------------------------------

Tabbed by: Dead_Start
Email:

Tuning: Standard (EADGBE)

| p pull-off
| ~ vibrato

Verse:
  Em      Bm       C       G      Em      Bm       C       G
e|-0-------2-------0-------3-------0-------2-------0-------3|
B|-0-------3-------1-------3-------0-------3-------1-------3|
G|-0-------4-------0-------4-------0-------4-------0-------4| x5
D|-2-------4-------2-------5-------2-------4-------2-------5|
A|-2-------2-------3-------5-------2-------2-------3-------5|
E|-0-----------------------3-------0-----------------------3|

Chorus:
   G            D           Em            C
e|-3--3-3--3-3--2--2-2--2-2--0--0-0--0-0--0--0-0--0-0|
B|-3--3-3--3-3--3--3-3--3-3--0--0-0--0-0--1--1-1--1-1|
G|-4--4-4--4-4--2--2-2--2-2--0--0-0--0-0--0--0-0--0-0| x4
D|-5--5-5--5-5--0--0-0--0-0--2--2-2--2-2--2--2-2--2-2|
A|-5--5-5--5-5---------------2--2-2--2-2--3--3-3--3-3|
E|-3--3-3--3-3---------------0--0-0--0-0-------------|

Verse:
  Em      Bm       C       G      Em      Bm       C       G
e|-0-------2-------0-------3-------0-------2-------0-------3|
B|-0-------3-------1-------3-------0-------3-------1-------3|
G|-0-------4-------0-------4-------0-------4-------0-------4| x3
D|-2-------4-------2-------5-------2-------4-------2-------5|
A|-2-------2-------3-------5-------2-------2-------3-------5|
E|-0-----------------------3-------0-----------------------3|

Chorus:
   G            D           Em            C
e|-3--3-3--3-3--2--2-2--2-2--0--0-0--0-0--0--0-0--0-0|
B|-3--3-3--3-3--3--3-3--3-3--0--0-0--0-0--1--1-1--1-1|
G|-4--4-4--4-4--2--2-2--2-2--0--0-0--0-0--0--0-0--0-0| x4
D|-5--5-5--5-5--0--0-0--0-0--2--2-2--2-2--2--2-2--2-2|
A|-5--5-5--5-5---------------2--2-2--2-2--3--3-3--3-3|
E|-3--3-3--3-3---------------0--0-0--0-0-------------|

Bridge:
   D                        Bm
e|-2--2-2--2-2--2--2-2--2-2--2--2-2--2-2--2--2-2|
B|-3--3-3--3-3--3--3-3--3-3--3--3-3--3-3--3--3-3|
G|-2--2-2--2-2--2--2-2--2-2--4--4-4--4-4--4--4-4|
D|-0--0-0--0-0--0--0-0--0-0--4--4-4--4-4--4--4-4|
A|---------------------------2--2-2--2-2--2--2-2|
E|----------------------------------------------|
   C                        Am
e|-0--0-0--0-0--0--0-0--0-0--0--0-0--0-0--0--0-0|
B|-1--1-1--1-1--1--1-1--1-1--1--1-1--1-1--1--1-1|
G|-0--0-0--0-0--0--0-0--0-0--2--2-2--2-2--2--2-2|
D|-2--2-2--2-2--2--2-2--2-2--2--2-2--2-2--2--2-2|
A|-3--3-3--3-3--3--3-3--3-3--0--0-0--0-0--0--0-0|
E|----------------------------------------------|




Verse:
  Em      Bm       C       G      Em      Bm       C       G
e|-0-------2-------0-------3-------0-------2-------0-------3|
B|-0-------3-------1-------3-------0-------3-------1-------3|
G|-0-------4-------0-------4-------0-------4-------0-------4| x3
D|-2-------4-------2-------5-------2-------4-------2-------5|
A|-2-------2-------3-------5-------2-------2-------3-------5|
E|-0-----------------------3-------0-----------------------3|



Chorus:
   G            D           Em            C
e|-3--3-3--3-3--2--2-2--2-2--0--0-0--0-0--0--0-0--0-0|
B|-3--3-3--3-3--3--3-3--3-3--0--0-0--0-0--1--1-1--1-1|
G|-4--4-4--4-4--2--2-2--2-2--0--0-0--0-0--0--0-0--0-0| x4
D|-5--5-5--5-5--0--0-0--0-0--2--2-2--2-2--2--2-2--2-2|
A|-5--5-5--5-5---------------2--2-2--2-2--3--3-3--3-3|
E|-3--3-3--3-3---------------0--0-0--0-0-------------|


Solo:
   G            D           Em            C
e|-3--3-3--3-3--2--2-2--2-2--0--0-0--0-0--0--0-0--0-0|
B|-3--3-3--3-3--3--3-3--3-3--0--0-0--0-0--1--1-1--1-1|
G|-4--4-4--4-4--2--2-2--2-2--0--0-0--0-0--0--0-0--0-0| 
D|-5--5-5--5-5--0--0-0--0-0--2--2-2--2-2--2--2-2--2-2|
A|-5--5-5--5-5---------------2--2-2--2-2--3--3-3--3-3|
E|-3--3-3--3-3---------------0--0-0--0-0-------------|
 |                                                   |
 |                                                   |
e|---------------14~~~~~~~---15~~~~~~---------17fb---|
B|-15~~~~~~~~~---------------------------------------|
G|---------------------------------------------------|
D|---------------------------------------------------|
A|---------------------------------------------------|
E|---------------------------------------------------|
   G            D           Em            C
e|-3--3-3--3-3--2--2-2--2-2--0--0-0--0-0--0--0-0--0-0|
B|-3--3-3--3-3--3--3-3--3-3--0--0-0--0-0--1--1-1--1-1|
G|-4--4-4--4-4--2--2-2--2-2--0--0-0--0-0--0--0-0--0-0| 
D|-5--5-5--5-5--0--0-0--0-0--2--2-2--2-2--2--2-2--2-2|
A|-5--5-5--5-5---------------2--2-2--2-2--3--3-3--3-3|
E|-3--3-3--3-3---------------0--0-0--0-0-------------|
 |                                                   |
 |                                                   |
e|---------------14~~~~~~~---15~~~~~~----------------|
B|-15~~~~~~~~------------------------15fb---15fb-15fb|
G|---------------------------------------------------|
D|---------------------------------------------------|
A|---------------------------------------------------|
E|---------------------------------------------------|

   G            D           Em            C
e|-3--3-3--3-3--2--2-2--2-2--0--0-0--0-0--0--0-0--0-0|
B|-3--3-3--3-3--3--3-3--3-3--0--0-0--0-0--1--1-1--1-1|
G|-4--4-4--4-4--2--2-2--2-2--0--0-0--0-0--0--0-0--0-0| 
D|-5--5-5--5-5--0--0-0--0-0--2--2-2--2-2--2--2-2--2-2|
A|-5--5-5--5-5---------------2--2-2--2-2--3--3-3--3-3|
E|-3--3-3--3-3---------------0--0-0--0-0-------------|
 |                                                   |
 |                                                   |
e|---------------14~~~~~~~---15~~~~~~---------17fb---|
B|-15~~~~~~~~~---------------------------------------|
G|---------------------------------------------------|
D|---------------------------------------------------|
A|---------------------------------------------------|
E|---------------------------------------------------|
   G            D           Em            C
e|-3--3-3--3-3--2--2-2--2-2--0--0-0--0-0--0--0-0--0-0|
B|-3--3-3--3-3--3--3-3--3-3--0--0-0--0-0--1--1-1--1-1|
G|-4--4-4--4-4--2--2-2--2-2--0--0-0--0-0--0--0-0--0-0| 
D|-5--5-5--5-5--0--0-0--0-0--2--2-2--2-2--2--2-2--2-2|
A|-5--5-5--5-5---------------2--2-2--2-2--3--3-3--3-3|
E|-3--3-3--3-3---------------0--0-0--0-0-------------|
 |                                                   |
 |                                                   |
e|---------------------------------------------------|
B|-15~~~~~--13--12----13p12--------------------------|
G|----------------------------12---12----14fb—14fb---|
D|---------------------------------------------------|
A|---------------------------------------------------|
E|---------------------------------------------------|
   G
e|-3-----------------------------------------------|
B|-3-----------------------------------------------|
G|-4-----------------------------------------------|
D|-5-----------------------------------------------|
A|-5-----------------------------------------------|
E|-3-----------------------------------------------|
 |                                                 |
 |                                                 |
e|-12~~~~~~~~~~~~~~~~------------------------------|
B|-------------------------------------------------|
G|-------------------------------------------------|
D|-------------------------------------------------|
A|-------------------------------------------------|
E|-------------------------------------------------|
Suggest correction
What's this?
You can suggest a correction to this tab. Community and Mods will review your correction and vote to approve or reject it.
comments
print report bad tab
1 comment total.
0 reply
saintjohn 76 wrote on January 2 2008, 07:06 pm

just want to thank you for tabbing my favorite song ever

guest
You may want to rate the tab now too:
select rating
Please do not post tabs as comments. Select "correction" instead!