Oops, an error
Loading. Please wait.

Meet Me At The Corner Bass Tab

version 1
version 1

Whole song

Interactive

9,167 views 18 this week
no commentswrite comment
1 2 3 4 5
accurate
x 9
add to favorites
launch autoscroll
font size
0
reset
guitar tuner
Tab Pro tools
  • play this tab
  • loop segment
  • change instrument
  • show fretboard
  • metronome
×
Best way to learn
"Meet Me At The Corner"
Autoscroll
slow
fast
+/-
esc
set tempo
stop
Contributor
-------------------------------------------------------------------------------
                            Meet Me At The Corner - Red Hot Chili Peppers
-------------------------------------------------------------------------------
Tabbed by: Davie504(youtube), Submitted by Jordilowijs to have tab on phone
E-mail: jordilowijs@hotmail.com

Tuning: Standard

Main Riff 1
G|-8--8--8---10---12-12----12--8---8--8------13--12-12---12--|
D|-----------------------------------------------------------|
A|-----------------------------------------------------------|
E|-8--8------10---11----11-----8-----8-------11--11----11----|

Main Riff 2
G|-17-------17------12--12------12--------19------19------19---19-19------19-|
D|---------------------------------------------------------------------------|
A|---------------------------------------------------------------------------|
E|-16---16------16--11------11-------11---18--18------18--19----------19-----|

G|-20------20------20------20---------20-----20------20-------20-----20----20-|
D|----------------------------------------------------------------------------|
A|----------------------------------------------------------------------------|
E|-20--20------20------19------19-19------19-----18-----18-18-----18----17----|

G|-------20----20---17--17--17--12-12----12------10-----10----10-10---10----|
D|--------------------------------------------------------------------------|
A|--------------------------------------------------------------------------|
E|-17-17----17------16--16------11----11----11---10--10----10-------10---10-|

Bridge
G|-------------------------------------------|
D|-------------------------------------------|
A|--------------5--3--------------6--4-------|
E|-0----0-3--5----------5-----1--------------|

Outro
G|---------------------------------------------------------------------------|
D|-------6-7-8--8-8-8-8-8----------------------------------------------------|
A|6-6-6--------------------4-4-4-4-6-------------6----6-6-6-6-6--------------|
E|------------------------------------4--4-4-4-4---4------------6-6-6-6-6-6--|

G|-----------------------|
D|-----------------------|
A|--4-4-4-4-4------------|
E|-------------4-4-4-4---|
=============================================================================
comments
print report bad tab
I want to post or [tab]
guest
You may want to rate the tab now too:
select rating
Please do not post tabs as comments. Select "correction" instead!