Oops, an error
Loading. Please wait.

Meet Me At The Corner Tab

version 1
version 1

Whole song

Interactive

50,960 views 87 this week
4 commentsread comments
1 2 3 4 5
excellent!
x 16
add to favorites
launch autoscroll
font size
0
reset
how to read this tab
guitar tuner
Autoscroll
slow
fast
+/-
esc
set tempo
stop
Help us to improve Ultimate-Guitar.com Take our survey!
×
Author
Red Hot Chili Peppers
Meet Me At The Corner

Album: I'm With You

Tabbed By Billy S
Youtube: highguy19
Video Link: http://www.youtube.com/watch?v=bBjs_NGutjQ

Chords

   Cm  Fdim  Eb*  G#*  Eb  A#7  Ddim7  G# Ddim  G7   Fm   Gm  Em  Cmaj7  
e|-8--|----|----|----|----|----|-----|---|----|--7-|----|----|-7-|--7--|
B|-8--|-9--|-8--|-9--|-8--|-11-|--9--|-4-|-6--|--6-|-9--|----|-8-|--8--|
G|-8--|-7--|-8--|-8--|-8--|-10-|--10-|-5-|-7--|--7-|-10-|-12-|-9-|--9--|
D|-10-|-9--|-8--|-10-|-8--|-12-|--9--|-6-|-6--|--5-|-10-|-12-|-9-|--10-|
A|-10-|-8--|-10-|-11-|-6--|-11-|--11-|-6-|-5--|----|-8--|-10-|-7-|-----|
E|-8--|----|----|----|----|-10-|--10-|-4-|----|----|----|----|-0-|--8--|

   Am   Fm7  C#  Bb
e|--5--|----|---|---|
B|--5--|-9--|-6-|-6-|
G|--5--|-8--|-6-|-7-|
D|--7--|-10-|-6-|-8-|
A|--0--|-8--|-4-|-8-|
E|-(5)-|----|---|-6-|




Intro

e|----------------------------------------------|               
B|--8-----8--8--8-----9----8---------------8----|
G|--8-----8--8--8-----7----8---------------8----|
D|--10----10-10-10----9----8----8----------8----|
A|--10----10-10-10----8----8h10-10-10---10-10---|
E|--8-----8--8--8-------------------------------|

e|----------------------------------------------|
B|--8-----8--8--8----9---8----------------------|
G|--8-----8--8--8----7---8----------------------|
D|--10----10-10-10---9---8---------8h10p8-------|
A|--10----10-10-10---8---8h10-8h10--------10/---|
E|--8-----8--8--8-----------------------------\-|

Verse

    Please don't ask me who                                             
e|-----------------------------------------.----|                       
B|--8-----8--8--8-----9----8------8--------8----|               
G|--8-----8--8--8-----7----8------8--------8----|
D|--10----10-10-10----9----8------8--------8----|
A|--10----10-10-10----8----8h10---10-------10---|
E|--8-----8--8--8-------------------------------|       
                                                
    Oh, who you think I am
e|----------------------------------------------|
B|--8-----8--8--8----9---8-------------------.--|
G|--8-----8--8--8----7---8------8--8h10p8----x--|
D|--10----10-10-10---9---8------8---------10----|
A|--10----10-10-10---8---8h10---10--------------|
E|--8-----8--8--8-------------------------------|

    I could live without that
e|-----------------------------------------.----|
B|--8-----8--8--8-----9----8------8--------8----|
G|--8-----8--8--8-----7----8------8--------8----| 
D|--10----10-10-10----9----8------8--------8----|
A|--10----10-10-10----8----8h10---10-------10---|
E|--8-----8--8--8-------------------------------|
                                                
    I'm just a modest man
e|--------8-------------------------------------|
B|--8-------8--------9----8------8-----8---8----|
G|--8---------8------x----8------8-----8---8----|
D|--10---------------9----8------8-----8---8----|
A|--10---------------8----8h10---10----10--10---|
E|--8-------------------------------------------|
                                                                
    Meet me at the corner, and oh               
e|--4------------------------|-----------------------------|
B|--4--------------------8---|--(8)--------8---------------|
G|--5--------5--5--------8---|--(8)--------8---------------|
D|--6--------6--6--------8---|--(8)-----8--8---------------|
A|--6--------6--6--------6---|--(6)-----6--6----6----------|
E|--4--------4--4------------|-----6-------6----------6----|            
                                                
    Tell me  what  to do        coz I messed
e|-----------6------------|-------------------------------|
B|---------------6--------|-------------------------------|
G|--7------------------7--|-(7)--------7----7h8---7-------|
D|--8------------------6--|-(6)----------------------x----|
A|--8------------------x--|--------------------------x----|
E|--6-----6------------7--|-(7)-----7----------------x--8-|

    Up on you, and had I known all
e|--------------------------|-------------------------|
B|--8-----------------------|-------------8-----------|
G|--8-----------8-----------|----8--------------------|
D|--------------------------|-------------------------|
A|--------------------------|-------------------------|
E|--------8--8-----8--8--7--|-------7--7-----7-----6--|
                                        
    That I do now, I'm guessing were through now
e|------------------------|-------------------.--|      
B|-----8-------8----------|--4-----4/6--4h6-4-4--|      
G|-----8-------8-8--------|--5----------------5--|
D|------------------------|----------------------|      
A|------------------------|----------------------|      
E|--6-----6-6-------6--5--|-----5----------------|              
                                        
   Receding into the forest, I will     
e|------------------------------------|
B|-3/4--------4-----8-----------------|
G|------------5-----8-----------------| 
D|----------6-------8---------8-------|
A|--------6---------6----8/10---10/---|
E|------4-----------------------------| 
                                        
   Lay around and wait and i'll wait for you...
e|------------------------7--------7----|       
B|--------6-----------------------------|       
G|-----4----4-----------7----10------7--|
D|-----6------6-----9-----9-------------|       
A|-5----------------10----------10------|       
E|--------------------------------------|
                                        
Solo                                                                    

e|-----------------------------------------------|
B|-----------------------------------------------|
G|---------------------------------8-10-8--------|
D|-8h10p8--------------------8-10---------8-10-8-|
A|--------10---8h10p8---10-----------------------|
E|-----------------------------------------------|      

e|--------------------------------------13/15--13--18--15-|     
B|-11h13b(15)bd13p11----11-13b(15)bd13--------------------|             
G|-------------------12-----------------------------------|
D|--------------------------------------------------------|             
A|--------------------------------------------------------|             
E|--------------------------------------------------------|

Verse                                                                   
                                                                        
  Please don't ask me where
  Oh, where you think I've been                                         
  I've been a lot of places                                             
  But this could be my whim
e|------------------------------------|                         
B|---------9-------------8------------|                 
G|------10-------12------8------------|
D|---10----------12------10-----------|                 
A|-8----------10---------10-----------|                 
E|-----------------------8------------|
                                                                
e|------------------------------------|                         
B|------------------------------------|
G|-8h10p8-----------------------------|                                 
D|--------10--8h10p8------------------|                                 
A|-------------------10--8h10p8-------|
E|------------------------------11^---|
                                                        
Chorus

  Meet me at the corner, and oh                 
  Tell me what to do 'cause I messed up on you          
  And had I known, oh, that I do now...
  I'm guessing we're through now                
  Receding into the forest,                                     
  I will lay around and wait
  And I'll wait for you                         
                                                
e|-8----------------------------------|
B|---8--------------------------------| 
G|-----8-------8----------------------|                         
D|----------10-----------8-10---------|
A|-------10--------8-10---------------|                 
E|------------------------------------|                         

Bridge                                                  
                                                                
   I feel so bad, thought you oughta know
e|---7-------------------------------7--------------|           
B|---8-------------------------------8--------------|                   
G|---9-------------------------------9--------------|
D|---9-------------------------------10-------------|             
A|---7----------------------------------------------|                   
E|---0-------------------------------8--------------|
                                    (T)                                 
   And I feel so bad, thought you oughta know                           
e|-------7-------------------------------7----------|
B|-------8-------------------------------8----------|             
G|-------9-------------------------------9----------|           
D|-------9-------------------------------10---------|
A|-------7------------------------------------------|           
E|-------0-------------------------------8----------|           

   Something I wanna show                                       
e|-------------------5-----------------|                                
B|-------------------5-----------------|
G|-------------------5-----------------|
D|-------------------7-----------------|
A|-------------------0-----------------|
E|------------------(5)----------------|

   I thought you oughta know
e|------------------------------------|
B|----------------------9-------------|
G|----------------------8-------------|
D|----------------------10------------|
A|----------------------8-------------|
E|------------------------------------|


e|------------------------------------|
B|-8-----------------6----------------|
G|-8-----------------6----------------|
D|-8-----------------6----------------|
A|-6-----------------4----------------|
E|------------------------------------|

Verse

   Please don't say you want
   To keep in touch out there
   To see you on the corner
   Aw, that I just can't bear

   Well, meet me at the corner and you'll
   Tell me what to do
   'Cause I messed up on you
   And had I known, oh, that I do now
   I'm guessing we're through now
   Receding into the forest,
   I will lay around and wait

   Eb           Bb
   Hey, and I turned

     C#                    G#
   I turned my head when I thought

           Eb                 Bb
   I saw a sign from the gods

     C#  
   A sign from the gods

        G#                            Eb
   That you weren't meant to be mine

            Bb
   And it's fine

   C#                  G#
   Taking it all for a ride

                           Eb    Bb
   Till the day when it's gone......

     C#           G#                  Eb
   I mystified my way and it all went wrong

              Bb     C#                     G#  
   When it's gone, I live and I love, and I lose and I win

            Eb                    Bb         
   But it's better than ever, whenever I'm in

   C#                   G#                    Eb
   Thank you, girl, for everywhere that we've been


Outro

e|-------------------------------------------------------|
B|---pb8(11)-(11)-(11)-(11)bd8---8b(9)bd8--8\6--8b(9)--8-|                      
G|-------------------------------------------------------|
D|-------------------------------------------------------|
A|-------------------------------------------------------|                      
E|-------------------------------------------------------|

e|--------------4---4------------------------------------|
B|--6\4--6----6---------6b(8)--4b(6)--4----4-----4-4-----|
G|-------------------------------------------------------|
D|-------------------------------------------------------|
A|-------------------------------------------------------|
E|-------------------------------------------------------|

e|-------------------------------------------------------|
B|------4------------------------------------------------|
G|--3/5---5\3---3--3b(5)bd3--1--3b(5)bd3--1--0-----------|
D|-------------------------------------------------------|
A|-------------------------------------------------------|
E|-------------------------------------------------------|
Suggest correction
What's this?
You can suggest a correction to this tab. Community and Mods will review your correction and vote to approve or reject it.
comments
print report bad tab
4 comments total. Showing first comments.
+2 reply
80s+90srocker 32 wrote on October 11 2011, 10:18 pm

THANK YOU THANK YOU THANK YOU! Everything seems to check out alright, really tough progressions

+1 reply
mrbrownbunny 184 wrote on November 13 2011, 08:33 pm

your welcome :) lol

0 reply
CageTE 35 wrote on December 21 2011, 08:13 am

I think the Cm should actually be in G minor barre form

|-----|
|-----|
|-----|
|--5--|
|--6--|
|--8--|

guest
You may want to rate the tab now too:
select rating
Please do not post tabs as comments. Select "correction" instead!