Oops, an error
Loading. Please wait.

Mellowship Slinky In B Major Bass Tab

version 4
version 4

Whole song

Interactive

5,703 views 3 this week
2 commentsread comments
1 2 3 4 5
x 4
add to favorites
launch autoscroll
font size
0
reset
guitar tuner
Autoscroll
slow
fast
+/-
esc
set tempo
stop
Help us to improve Ultimate-Guitar.com Take our survey!
×
Author
----------------------------------------------------------------------------
		Mellowship slinky in B major-Red hot chili peppers
----------------------------------------------------------------------------

Tabbed By : Joel Keane
e-mail:

Tuning: Standard
Intro
G|--------------------------------------------------------------------------|
D|--------------------------------------------------------------------------|
A|--4-3-2-0-5-6-7-------5---7-7-5-7----4-3-2-0-5-6-7-------5---7-------5----|
E|----------------0-0-7---7--------------------------0-0-7---7---0-0-7---7--|

G|------------------------------------------------------------------8-------|
D|--------------------------------------------------------------------7-----|
A|--4-3-2-0-5-6-7-------5---7-7-5-7----4-3-2-0-5-6-7-------5---7--------9---|
E|----------------0-0-7---7--------------------------0-0-7---7---0--------7-|
Verse
G|-------------8-------------*--8-------------------8---------------8-------|
D|--9-9x9-9--x---7------9-9x7-7x--7------9-9x9-9--x---7-----9-8-7-x---7-----|
A|-----------------9----------------9-------------------9---------------9---|
E|-------------------7----------------7-------------------7---------------7-|

G|-------------8----------------8-------------------8---------------8-------|
D|--9-9x9-9--x---7------9-9x9-7x--7------9-9x9-9--x---7-----------x---7-----|
A|-----------------9----------------9-------------------9----#----------9---|
E|-------------------7----------------7-------------------7-7-6-5---------7-|
verse plays like that except * 1st time only, then #
fill 2nd time thru
G|----------------------------------|
D|--9-8-7---------------7-8---------|back to verse riff
A|--------7h8-7-5-7-8-9-------------|
E|----------------------------------|
Chorus
G|--[------------------------------------------------------------------------|
D|--[------------------5------------------------4------------------------5---|
A|/7[5h7-5h7---5h7-5h7---7----4h5-4h5---4h5-4h5---5----5h7-5h7---5h7-5h7---7-|
E|--[------------------------------------------------------------------------|

G|---------------------------------------------|1st time back to verse
D|----------------------------------5-4-3------|
A|--4h5-4h5-4-4h5-4h5-4-4h5-4h5-----------5----|
E|---------------------------------------------|

Interlude
G|-----------------------------------------------------------------------------|
D|------------------------------------------------5/7-5/7-----5/7-5/7--7-------|
A|-----5-7-9-------5-7-9-------5-7-9-------5-7-9---------9-8-7-------9---8-7---|
E|--/7-------7-5/7-------7-5/7-------7-5/7-------------------------------------|

G!------------------------8--------| Verse, chorus and intro riff again
D|--------------------------7------|
A|----------------------------9----|
E|--3/5-3-2-1-0--3/5-3-2--------7--|


| /  slide up
| \  slide down
| h  hammer-on
| p  pull-off
| ~  vibrato
| +  harmonic
| x  Mute note
===============================================================================
Suggest correction
comments
print report bad tab
2 comments total.
0 reply
jk41 732 Mar 06, 2011 06:04 PM

If this helped please rate, it should cos its the only correct version on here

0 reply
sward89 10 Jan 15, 2012 10:02 PM

sounds right

guest
You may want to rate the tab now too:
select rating
Wanna post a correction for this tab? Suggest correction