Oops, an error
Loading. Please wait.

Midnight Tab

version 1
version 1

Whole song

Interactive

12,329 views 48 this week
3 commentsread comments
1 2 3 4 5
x 9
add to favorites
launch autoscroll
font size
0
reset
how to read this tab
guitar tuner
Autoscroll
slow
fast
+/-
esc
set tempo
stop
Help us to improve Ultimate-Guitar.com Take our survey!
×
Tuning
E A D G B E
Song: Midnight
Band: Red Hot Chili Peppers
By: Dan

Intro: This is played by the strings but the chords are:

| C | G | D | A |

Verse:

     F#m         Dmaj7 D Dmaj7 D

e-|---2--2--2--2--|-2--2--2--2-------------|
b-|---2--2--2--2--|-2--3--2--3----3p2------|
g-|---2--2--2--2--|-2--2--2--2--------4p2--|  x3 then,
d-|---4--4--4--4--|-0--0--0--0-------------|
a-|---4--4--4--4--|------------------------|
E-|---2--2--2--2--|------------------------|


     F#m         Dmaj7 D Dmaj7 D

e-|---2--2--2--2--|-2--2--2--2-------------|
b-|---2--2--2--2--|-2--3--2--3--------5----|
g-|---2--2--2--2--|-2--2--2--2----4/6------|
d-|---4--4--4--4--|-0--0--0--0-------------|
a-|---4--4--4--4--|------------------------|
E-|---2--2--2--2--|------------------------|


      Bm7           Dmaj7 D Dmaj7 D Dmaj7

e-|---7--7--7---7---|-2--2--2--2--2--|
b-|---7--7--10--10--|-2--3--2--3--2--|
g-|---7--7--7---7---|-2--2--2--2--2--| x2 then,
d-|---7--7--7---7---|-0--0--0--0--0--|
a-|---9--9--9---9---|----------------|
E-|---7--7--7---7---|----------------|


     F#m         Dmaj7 D Dmaj7 D

e-|---2--2--2--2--|-2--2--2--2-------------|
b-|---2--2--2--2--|-2--3--2--3----3p2------|
g-|---2--2--2--2--|-2--2--2--2--------4p2--|
d-|---4--4--4--4--|-0--0--0--0-------------|
a-|---4--4--4--4--|------------------------|
E-|---2--2--2--2--|------------------------|


     F#m         Dmaj7 D Dmaj7 D

e-|---2--2--2--2--|-2--2--2--2-------------|
b-|---2--2--2--2--|-2--3--2--3-------------|
g-|---2--2--2--2--|-2--2--2--2--------2----|  then,
d-|---4--4--4--4--|-0--0--0--0----2/4------|
a-|---4--4--4--4--|------------------------|
E-|---2--2--2--2--|------------------------|


      Bm7          Dmaj7 D Dmaj7 D Dmaj7

e-|---7--7--7---7---|-2--2--2--2--2--|
b-|---7--7--10--10--|-2--3--2--3--2--|
g-|---7--7--7---7---|-2--2--2--2--2--| x2
d-|---7--7--7---7---|-0--0--0--0--0--|
a-|---9--9--9---9---|----------------|
E-|---7--7--7---7---|----------------|


Bridge:

| A | E | F | C |

| A | E | F | Fma7 |

Chorus:

| C | G | D | A |   a few times

This is it apart from later in the song when the first line
of the bridge is played 3 times followed by the second line.
Listen to the CD for the order.
Suggest correction
comments
print report bad tab
3 comments total.
0 reply
lordjamir16 63 Apr 18, 2006 06:30 AM

is this correct??????

0 reply
marqiss 272 Dec 29, 2016 02:23 PM

i did the correction to the tab, cheers!

+2 reply
pimnation 10 Feb 05, 2007 11:15 PM

nope definitely not, that stretch can't be possible

guest
You may want to rate the tab now too:
select rating
Wanna post a correction for this tab? Suggest correction