Oops, an error
Loading. Please wait.

Million Miles Of Water Tab

version 2
version 2

Whole song

Interactive

16,792 views 33 this week
8 commentsread comments
1 2 3 4 5
excellent!
x 11
add to favorites
launch autoscroll
font size
0
reset
how to read this tab
guitar tuner
Autoscroll
slow
fast
+/-
esc
set tempo
stop
Help us to improve Ultimate-Guitar.com Take our survey!
×
Contributor
nabby2016 149
Million miles of water, i saw the other tab and how wrong it was so i decided to figure 
out for myself
yall should get this song if you dont have it already....

downstroke: v (above the chord)
upstroke:  ^ (above the chord)
slide up:   /
mute string: X
bend: note^  ex: 9^
pull off:  9p7
pb

pass 1
---------v--^---v-^-v-^-v-----v--^---v-^--v-^-v-^----

e--------0--0---2-2-2-2-2/3--3--3---------------------|
b--------0--0---3-3-3-3-3----3--3---7-7-7-7-7-7-------|
g--------0--0---4-4-4-4-4----4--4---7-7-7-7-7-7-------|
d--------2--2---4-4-4-4-4----5--5---7-7-7-7-7-7-------|
a--------2--2---2-2-2-2-2----5--5---5-5-5-5-5-5-------|
E--------0--0-------------- --3--3--------------------|

pass 2

---------v--^---v-^-v-^-v-----v--^---v--^--v--^---v--^----

e--------0--0---2-2-2-2-2/3--3--3----------------------------|
b--------0--0---3-3-3-3-3----3--3---7--8--10 -8--7--8--------|
g--------0--0---4-4-4-4-4----4--4---7--7-- 7--7--7--7--------|
d--------2--2---4-4-4-4-4----5--5---7--7-- 7--7--7--7--------|
a--------2--2---2-2-2-2-2----5--5----------------------------|
E--------0--0-------------- --3--3---------------------------|

pass 3

---------v--^---v-^-v-^-v-----v--^--------------------------

e--------0--0---2-2-2-2-2/3--3--3-----------------------------|
b--------0--0---3-3-3-3-3----3--3-----------------------------|
g--------0--0---4-4-4-4-4----4--4------7-----7-----7/9--------|
d--------2--2---4-4-4-4-4----5--5---9-----9-----9-------------|
a--------2--2---2-2-2-2-2----5--5-----------------------------|
E--------0--0-------------- --3--3----------------------------|

pass 4

---------v--^---v-^-v-^-v-----v--------------

e--------0--0---2-2-2-2-2---------------------------|
b--------0--0---3-3-3-3-3----7---7-7-7-7-7----------|
g--------0--0---4-4-4-4-4----7---7-7-7-7-7----------|
d--------2--2---4-4-4-4-4----7---7-7-7-7-7----------|
a--------2--2---2-2-2-2-2----5---5-5-5-5-5----------|
E--------0--0---------------------------------------|


repeat these in order for the intro and verses


solo
     the solo obviously has an effect on it, i think it is one of john's mooger fooger 
but im not very sure

e------------------------------------------------------------------------------------|
b--------------------------------------------------15-----15^------------------------|
g------------14b----14b----14b----14b----14b------------------16p14------14----------|
d---------------------------------------------------------------------17-------17~~--|
a------------------------------------------------------------------------------------|
E---0000-----------------------------------------------------------------------------|

e------------------------------------------------------------------------------------|
b--17^----pb17r---15h17-17~~~17p15------------15-15~~~~------------------------------|
g------------------------------------16~~14h16----------16-16---14~~~~---------------|
d----------------------------------------------------------------------17-16-17-14~--|
a------------------------------------------------------------------------------------|
E------------------------------------------------------------------------------------|
comments
print report bad tab
8 comments total. Showing first comments.
0 reply
raty06 1,407 wrote on February 13 2007, 02:33 pm

wers d tab 4 d chorus tho haha nice tab tho iv bin wantin 2 play dis song 4 ages haha plz try an tab d chorus tho plz thanx

-1 reply
cooljew 476 wrote on February 21 2007, 11:53 pm

hey dick****, the others tab is not wrong, they're called power chords dumbass, ever heard of them?

+1 reply
nabby2016 149 wrote on February 23 2007, 11:25 am

alright i wasnt really trying to ridicule you or criticize you i was just saying that that tab is incorrect in the sense that the power chords only play 2-3 of the notes of 4,5,and 6 note chords. so it will never sound or feel the same if you play just power chords opposed to the full chords.

I want to post or [tab]
guest
You may want to rate the tab now too:
select rating
Please do not post tabs as comments. Select "correction" instead!