Oops, an error
Loading. Please wait.

Millionaires Against Hunger Bass Tab

5,596 views 6 this week
no commentswrite comment
1 2 3 4 5
x 5
add to favorites
launch autoscroll
font size
0
reset
guitar tuner
Autoscroll
slow
fast
+/-
esc
set tempo
stop
Help us to improve Ultimate-Guitar.com Take our survey!
×
Author
Band: Red Hot Chili Peppers
Song: Millionaires Against Hunger
Album: Freaky Styley [Bonus Tracks]

Yo yo. some old school chilies for ya. mofoing awesome song hope you like this tab 
rate it :D enjoy

Normal tuning

Main verse
|-----------------7-5---7--7-5-|
|-------7-5--------------------|
|-----------3---5-----x--------| repeat
|-5-x-x------------------------|
  s s s p p s   s p p s p  p p

Chorus
|-9--7--6-6-6-6/7-7-7-7-----9-7--6-6-6-6/7-7-7-7-|
|-9--7--6-6-6-6/7-7-7-7-----9-7--6-6-6-6/7-7-7-7-| repeat
|------------------------------------------------|
|-----------------------0-0----------------------|

guitar solo
|------------7-7------5-5------7-7---|
|---2-2------------------------------| repeat
|----------5-----5--3-----3--5-----5-|
|-0-----0----------------------------|
  s p p s  s p p s  s p p s  s p p s

interlude
|--------------------------------|
|---------2-2-3-3-4-4-5-5-6-6--7-|
|-3-3-5-5------------------------|
|--------------------------------|

and thats it all you have to do is just repeating those riffs
have fun !
Suggest correction
comments
print report bad tab
guest
You may want to rate the tab now too:
select rating
Wanna post a correction for this tab? Suggest correction