Oops, an error
Loading. Please wait.

Millionaires Against Hunger Tab

4,345 views 6 this week
5 commentsread comments
1 2 3 4 5
x 7
add to favorites
launch autoscroll
font size
0
reset
how to read this tab
guitar tuner
Autoscroll
slow
fast
+/-
esc
set tempo
stop
Help us to improve Ultimate-Guitar.com Take our survey!
×
Tuning
E A D G B E
#----------------------------------PLEASE NOTE--------------------------------#
#This file is the author's own work and represents their interpretation of the#
#song. You may only use this file for private study, scholarship, or research.#
#-----------------------------------------------------------------------------#
#-- File created with Instab - http://www.pconline.com/~smcarey/instab.html --#
#-----------------------------------------------------------------------------#
Author/Artist: Red Hot Chili Peppers | Title: Millionaires Against Hunger
Album: Freaky Styley [Remastered] | Transcribed by: Greenie 12 [Edited by HybridSlinky]
I think this is quite close but it could be better.

Verse:
-||-------------5----3/4--4----5-------|--------------------------------------||-
-||------x-x-7--5----3/4--4----5--x-x--|----x-x-x-x--7--5----5h7-x-7----------||-
-||------x-x-7--5----3/4--4----5--x-x--|----x-x-x-x--7--5----5h7-x-7----5~~---||-
-||------------------------------------|--------------------------------------||-
-||------------------------------------|--------------------------------------||-
-||--5---------------------------------|--------------------------------------||-
                                                                              
-||-------------5----3/4--4----5-------|--------------------------------------||-
-||------x-x-7--5----3/4--4----5--x-x--|----x-x-x-x--7--5----5h7--------------||-
-||------x-x-7--5----3/4--4----5--x-x--|----x-x-x-x--7--5----5h7--5~~---------||-
-||------------------------------------|--------------------------------------||-
-||------------------------------------|--------------------------------------||-
-||--5---------------------------------|--------------------------------------||-  

I think the Chorus is something like this:
-||--7----7--------5------5--5--5-----------------||-
-||--7----7--------5------5--5--5--------5-----5--||-
-||--------------------------------7--7-----7-----||-
-||-----------------------------------------------||-
-||-----------------------------------------------||-
-||-----------------------------------------------||-
                                                                           
Solo (A small one):
-||----8----8----8----8--8h10--|-------------------||-
-||------10---10---10----------|--7--5--5h7--7--5--||-
-||----------------------------|--7--5--5h7--7--5--||-
-||----------------------------|-------------------||-
-||----------------------------|-------------------||-
-||----------------------------|-------------------||-
                                                         
-||----8----8----8----10--8----|-------------------||-
-||------10---10---10----------|--7--5--5h7--5-----||-
-||----------------------------|--7--5--5h7--5-----||-
-||----------------------------|-------------------||-
-||----------------------------|-------------------||-
-||----------------------------|-------------------||-
Repeat small solo twice.

Solo at 2:41, I think it´s octaves.
-||----------------------------------||-
-||----------------------------------||-
-||--9--11/9---7--5--14--14--19--19--||-
-||----------------------------------||-
-||--7---9/7---5--3--12--12--17--17--||-
-||----------------------------------||-

-||----------------------------------||-
-||----------------------------------||-
-||--9--11/9---7--5--19--19--17------||-
-||----------------------------------||-
-||--7---9/7---5--3--17--17--15------||-
-||----------------------------------||-

-||----------------------------------||-
-||----------------------------------||-
-||--9--11/9---7--5--19--------------||-
-||----------------------------------||-
-||--7---9/7---5--3--17--------------||-
-||----------------------------------||-

-||----------------------------------||-
-||----------------------------------||-
-||--9--11/9---7--5--19--19--17------||-
-||----------------------------------||-
-||--7---9/7---5--3--17--17--15------||-
-||----------------------------------||-

The solo outro is something like:
-||--------------------1--1--2--2--3--3--4----5--5--||-
-||--3--3--4--4--5--5--1--1--2--2--3--3--4----5--5--||-
-||--3--3--4--4--5--5-------------------------------||-
-||-------------------------------------------------||-
-||-------------------------------------------------||-
-||-------------------------------------------------||-

And then it just goes back to the first solo until it fades out.
Suggest correction
comments
print report bad tab
5 comments total. Showing first comments. show 1 bad comment
0 reply
Rorybondman13 82 Oct 07, 2005 11:22 AM

not a comment about the tab, just wandering where you got the song. JANISSARY ROCKS!

0 reply
McCready_91 10 Feb 27, 2007 04:48 AM

the song was a b side off one of the singles off freaky styley, not sure which one. you can get it now off the re-released version of freaky styley. top song.

guest
You may want to rate the tab now too:
select rating
Wanna post a correction for this tab? Suggest correction