Oops, an error
Loading. Please wait.

Mini-Epic Kill For Your Country Tab

130 views 1 this week
no commentswrite comment
1 2 3 4 5
3 more votes to show rating
add to favorites
launch autoscroll
font size
0
reset
how to read this tab
guitar tuner
Autoscroll
slow
fast
+/-
esc
set tempo
stop
Help us to improve Ultimate-Guitar.com Take our survey!
×
Author
Difficulty
intermediate
[Intro]

   Ebm        Bbm        B            F#
e|-6---6---|--9----9---|-11----14----|9-----------|
B|---7-----|-----------|-------------|---11-------|
G|---------|----10-----|----11-------|------11----|
D|---------|--8--------|-9-----------|------------|
A|-6-------|-----------|-------------|9-----------|
E|---------|-----------|-------------|------------|

   G#sus2      G#m     F#sus2   F#      E F# Gm
e|----11-------------|----9-----------|-----(11)---|------------|
B|-------11----12----|------9---11----|-9-11-12----|------------|
G|-13-------13-------|-11-----11------|-9-11-13----|------------|
D|-------------------|----------------|------------|------------|
A|-11----------------|-9--------------|------------|------------|
E|-------------------|----------------|------------|------------|


[Verse]

   Abm                   B
e|-4---4--4--4-4-44-44-|-7---7--7--7-7-77-77-|
B|-4---4--4--4-4-44-44-|-7---7--7--7-7-77-77-|
G|-4---4--4--4-4-44-44-|-8---8--8--8-9-99-99-|
D|-6---6--6--6-6-66-66-|-9---9--9--9-9-99-99-|
A|-6---6--6--6-6-66-66-|-x---x--x--x-x-xx-xx-|
E|-4---4--4--4-4-44-44-|-7---7--7--7-7-77-77-|   
                                             |  
   E                     C#B C# E            |(x2)
e|---------------------|--------0----0-0--00-|  
B|-9---9--9--9-9-99-99-|--------0----0-0--00-|  
G|-9---9--9--9-9-99-99-|-6-4-6--1----1-1--11-|
D|-9---9--9--9-9-99-99-|-6-4-6--2----2-2--22-|
A|-7---7--7--7-7-77-77-|-4-2-4--2----2-2--22-| 
E|---------------------|--------0----0-0--00-|

   Bm                    C#B C# E
e|-2---2--2--2-2-22-22-|--------0----0-0--00-|
B|-3---3--3--3-3-33-33-|--------0----0-0--00-|
G|-4---4--4--4-4-44-44-|-6-4-6--1----1-1--11-|
D|-4---4--4--4-4-44-44-|-6-4-6--2----2-2--22-|
A|-2---2--2--2-2-22-22-|-4-2-4--2----2-2--22-| 
E|---------------------|--------0----0-0--00-|

   Eb5
e|---------------------------------|
B|---------------------------------|
G|-8-8-8-8-8-8-8-8-8-8-8-8-8-8-8-8-|
D|-8-8-8-8-8-8-8-8-8-8-8-8-8-8-8-8-|
A|-6-6-6-6-6-6-6-6-6-6-6-6-6-6-6-6-| 
E|---------------------------------|(x2)

   B5      F#5 G#5  C#5
e|-----------|-----------|
B|-----------|-----------|
G|-4---4-----|------6----|
D|-4---4---4-|-6----6----|
A|-2---2---4-|-6----4----|
E|---------2-|-4---------|


[Chorus]

   Eb5
e|-----------|-----------|-----------|-----------|
B|-----------|-----------|-----------|-----------|
G|-8-8-8-888-|-8-8-8-888-|-8-8-8-888-|-8-8-8-888-|
D|-8-8-8-888-|-8-8-8-888-|-8-8-8-888-|-8-8-8-888-|
A|-6-6-6-666-|-6-6-6-666-|-6-6-6-666-|-6-6-6-666-|
E|-----------|-----------|-----------|-----------|
                                                 | 
                                                 |(x4)
   B5      F#5 G#5  C#5                          |
e|-----------|-----------|-----------|-----------|
B|-----------|-----------|-----------|-----------|
G|-8-8-8-888-|-8-8-8-888-|-4---4-----|------6----|
D|-8-8-8-888-|-8-8-8-888-|-4---4---4-|-6----6----|
A|-6-6-6-666-|-6-6-6-666-|-2---2---4-|-6----4----|
E|-----------|-----------|---------2-|-4---------|

   Eb5
e|-----------|-----------|-----------|-----------|
B|-----------|-----------|-----------|-----------|
G|-8-8-8-888-|-8-8-8-888-|-8-8-8-888-|-8-8-8-888-|
D|-8-8-8-888-|-8-8-8-888-|-8-8-8-888-|-8-8-8-888-|
A|-6-6-6-666-|-6-6-6-666-|-6-6-6-666-|-6-6-6-666-| x2
E|-----------|-----------|-----------|-----------|


[Outro]

   G#5      F#5      G#5               Eb5
e|-----------------|-----------------|-----------|-----------|
B|-----------------|-----------------|-----------|-----------|
G|-13-13-13-111111-|-13-13-13-131313-|-8-8-8-888-|-8-8-8-888-|
D|-13-13-13-111111-|-13-13-13-131313-|-8-8-8-888-|-8-8-8-888-|
A|-11-11-11-9-9-9--|-11-11-11-111111-|-6-6-6-666-|-6-6-6-666-| 
E|-----------------|-----------------|-----------|-----------|(x2)

   B5      G#5 F#5  C#5    Eb5
e|-----------|-----------|-----------|-----------|
B|-----------|-----------|-----------|-----------|
G|-4---4-----|------6----|-8-8-8-888-|-8-8-8-888-|
D|-4---4---6-|-4----6----|-8-8-8-888-|-8-8-8-888-|
A|-2---2---6-|-4----4----|-6-6-6-666-|-6-6-6-666-| 
E|---------4-|-2---------|-----------|-----------|(x2)


************************************

| x    Dead note
| (n)  Ghost note

************************************
Suggest correction
Give kudos to tab author, rate the tab!
1 2 3 4 5
comments
print report bad tab
guest
You may want to rate the tab now too:
select rating
Wanna post a correction for this tab? Suggest correction