Oops, an error
Loading. Please wait.

Minor Thing Tab

version 4
version 4

Whole song

Interactive

20,744 views 18 this week
7 commentsread comments
1 2 3 4 5
excellent!
x 18
add to favorites
launch autoscroll
font size
0
reset
how to read this tab
guitar tuner
Autoscroll
slow
fast
+/-
esc
set tempo
stop
Help us to improve Ultimate-Guitar.com Take our survey!
×
Contributor
Title: Minor Thing
Artist: Red Hot Chili Peppers
Album: By The Way

Instrument: 6 String Guitar

Tabbed by: Gary (rock_n__roll@hotmail.co.uk)

Tuning: Standard (E A D G B E)



Intro:
   F#m7                                                      C#m
E|-0---0--0--0--0---0--0--0--0--0----0--0--0--0--0--0--0--0---9--x--x--||
B|-2---2--2--2--2---2--2--2--2--2----2--2--2--2--2--2--2--2---9--x--x--||
G|-2---2--2--2--2---2--2--2--2--2----2--2--2--2--2--2--2--2---9--x--x--||
D|-4---4--4--4--4---4--4--4--4--4----4--4--4--4--4--4--4--4--11--x--x--||
A|-x---x--x--x--x---x--x--x--x--x----x--x--x--x--x--x--x--x------------||
E|-2---2--2--2--2---2--2--2--2--2----2--2--2--2--2--2--2--2------------||
  T--------------------------------------------------------|




   D                           Dmaj7                    Bm7
E|-----------------------------9-----9--9---9---9--9----7--7---7--7---||
B|-7---7--7---7--7--7--7---7---7-----7--7---7---7--7----7--7---7--7---||
G|-7---7--7---7--7--7--7---7---7-----7--7---7---7--7----7--7---7--7---||
D|-7---7--7---7--7--7--7---7---7-----7--7---7---7--7----7--7---7--7---||
A|-5---5--5---5--5--5--5---5----------------------------5--5---5--5---||
E|--------------------------------------------------------------------||




Verse:
   F#m7                                                      C#m
E|-0---0--0--0--0---0--0--0--0--0----0--0--0--0--0--0--0--0---9--x--x--||
B|-2---2--2--2--2---2--2--2--2--2----2--2--2--2--2--2--2--2---9--x--x--||
G|-2---2--2--2--2---2--2--2--2--2----2--2--2--2--2--2--2--2---9--x--x--||
D|-4---4--4--4--4---4--4--4--4--4----4--4--4--4--4--4--4--4--11--x--x--||
A|-x---x--x--x--x---x--x--x--x--x----x--x--x--x--x--x--x--x------------||
E|-2---2--2--2--2---2--2--2--2--2----2--2--2--2--2--2--2--2------------||
  T--------------------------------------------------------|
(I  change  the  key  from  C  to  D,  you  see  to  me  its  just  a)
(To  read a mind  you've  got  to re-define  the line  and make  your)



E|----12-12-12-12---12-12-12-12---12-12-12-12-12--12-12-12-12-12--x-x--||
B|----10-10-10-10---10-10-10-10---10-10-10-10-10--10-10-10-10-10--x-x--||
G|----11-11-11-11---11-11-11-11---11-11-11-11-11--11-11-11-11-11--x-x--||
D|-0---0--0--0--0----0--0--0--0----0--0--0--0--0---0--0--0--0--0--x-x--||
A|-0-------------------------------------------------------------------||
E|---------------------------------------------------------------------||
 (mi - nor  thing yo               He knows ev -  ry    thing)
 cir - cle   sing yo               He knows ev -  ry    thing)



   F#m7                                                      C#m 
E|-0---0--0--0--0---0--0--0--0--0----0--0--0--0--0--0--0--0---9--x--x--||
B|-2---2--2--2--2---2--2--2--2--2----2--2--2--2--2--2--2--2---9--x--x--||
G|-2---2--2--2--2---2--2--2--2--2----2--2--2--2--2--2--2--2---9--x--x--||
D|-4---4--4--4--4---4--4--4--4--4----4--4--4--4--4--4--4--4--11--x--x--||
A|-x---x--x--x--x---x--x--x--x--x----x--x--x--x--x--x--x--x------------||
E|-2---2--2--2--2---2--2--2--2--2----2--2--2--2--2--2--2--2------------||
  T--------------------------------------------------------|
 (To re-adjust  you've  got  to  trust  that  all  the  fuss is  just a)
 (You  make  a sound  the  spell is bound  to come  around  its  just a)


   D   Dmaj7                                              Bm7
E|-----9--9----9----9--9---9---9--9----9--9---9---9--9----7--7---7--7-||
B|-7---7--7----7----7--7---7---7--7----7--7---7---7--7----7--7---7--7-||
G|-7---7--7----7----7--7---7---7--7----7--7---7---7--7----7--7---7--7-||
D|-7---7--7----7----7--7---7---7--7----7--7---7---7--7----7--7---7--7-||
A|-5------------------------------------------------------5--5---5--5-||
E|--------------------------------------------------------------------||
 (mi - nor  thing  yo                    He knows ev  -  'ry  thing)
 (mi - nor  thing  yo                    He knows ev  -  'ry  thing)



   F#m7                                                      C#m
E|-0---0--0--0--0---0--0--0--0--0----0--0--0--0--0--0--0--0--12--x--x--||
B|-2---2--2--2--2---2--2--2--2--2----2--2--2--2--2--2--2--2---x--x--x--||
G|-2---2--2--2--2---2--2--2--2--2----2--2--2--2--2--2--2--2---9--x--x--||
D|-4---4--4--4--4---4--4--4--4--4----4--4--4--4--4--4--4--4------x--x--||
A|-x---x--x--x--x---x--x--x--x--x----x--x--x--x--x--x--x--x------------||
E|-2---2--2--2--2---2--2--2--2--2----2--2--2--2--2--2--2--2------------||
  T--------------------------------------------------------|
 (It's  just  a    mi - nor   thing     and   im   a   mi - nor   king)



E|--9---9---9---9---9---9---9---9---9---9---9---9--||
B|-10--10--10--10--10--10--10--10--10--10--10--10--||
G|-11--11--11--11--11--11--11--11--11--11--11--11--||
D|--0---0---0---0---0---0---0---0---0---0---0---0--||
A|-------------------------------------------------||
E|-------------------------------------------------||



E|--9---9---9---9---9---9---9---9---9---9---x-x-x-x--||
B|-10--10--10--10--10--10--10--10--10--10---x-x-x-x--||
G|-11--11--11--11--11--11--11--11--11--11---x-x-x-x--||
D|--0---0---0---0---0---0---0---0---0---0------------||
A|---------------------------------------------------||
E|---------------------------------------------------||
  (   He  knows  ev       -           'ry  thing    )


Interlude:
   A                    E      D
E|----------------------12----14--14--14--14--14----14--14--14--||
B|-14--14--14--14--x-x--12----15--15--15--15--15----15--15--15--||
G|-14--14--14--14--x-x--13----14--14--14--14--14----14--14--14--||
D|-14--14--14--14--x-x------------------------------------------||
A|--------------------------------------------------------------||
E|--------------------------------------------------------------||
  (Oo                   oo    oo                               )

    A                              E     D 
E|---------------------------------12---14--14--14--14--14--14--||
B|-14--14--14--14--14--14--14-x-x--12---15--15--15--15--15--15--||
G|-14--14--14--14--14--14--14-x-x--13---14--14--14--14--14--14--||
D|-14--14--14--14--14--14--14-x-x-------------------------------||
A|--------------------------------------------------------------||
E|--------------------------------------------------------------||
  (Oo                             wee   oo                     ) 



                     Bridge
                     F#m
E|-14--14--14--14----14-14-14-14-14-14-14-14-14-14-14-14-14-14-14-14--||
B|-15--15--15--15----14-14-14-14-14-14-14-14-14-14-14-14-14-14-14-14--||
G|-14--14--14--14----14-14-14-14-14-14-14-14-14-14-14-14-14-14-14-14--||
D|--------------------------------------------------------------------||
A|--------------------------------------------------------------------||
E|--------------------------------------------------------------------||
  (You've got your   bit         part        Mo    -   Zart           )    



                           A5           B5/G#  
E|-14-14-14-14-14-14-14-14-17-17-17-17-19-19-19-19--||
B|-14-14-14-14-14-14-14-14-17-17-17-17-19-19-19-19--||
G|-14-14-14-14-14-14-14-14--------------------------||
D|--------------------------------------------------||
A|--------------------------------------------------||
E|--------------------------------------------------||
 (hot          dart   ac -  cel -  er -  a -  tion


    F#m
E|-14-14-14-14-14-14-14-14-14-14-14-14-14-14-14-14-14-14-14-14-14-14--||
B|-14-14-14-14-14-14-14-14-14-14-14-14-14-14-14-14-14-14-14-14-14-14--||
G|-14-14-14-14-14-14-14-14-14-14-14-14-14-14-14-14-14-14-14-14-14-14--||
D|--------------------------------------------------------------------||
A|--------------------------------------------------------------------||
E|--------------------------------------------------------------------||
  (Pop           art              pis - tol     chas - in



          A5          E/G#
E|-14-14-17-17-17-17-16-16-16-16--||
B|-14-14-17-17-17-17-17-17-17-17--||
G|-14-14-------------16-16-16-16--||
D|--------------------------------||
A|--------------------------------||
E|--------------------------------||
 (cat fight in - tim - i - da - tion)



   F#m7                                                      C#m
E|-0---0--0--0--0---0--0--0--0--0----0--0--0--0--0--0--0--0---9--x--x--||
B|-2---2--2--2--2---2--2--2--2--2----2--2--2--2--2--2--2--2---9--x--x--||
G|-2---2--2--2--2---2--2--2--2--2----2--2--2--2--2--2--2--2---9--x--x--||
D|-4---4--4--4--4---4--4--4--4--4----4--4--4--4--4--4--4--4--11--x--x--||
A|-x---x--x--x--x---x--x--x--x--x----x--x--x--x--x--x--x--x------------||
E|-2---2--2--2--2---2--2--2--2--2----2--2--2--2--2--2--2--2------------||
  T--------------------------------------------------------|
(oh,           oh            oh              oh)



   D                           Dmaj7                    Bm7
E|-----------------------------9-----9--9---9---9--9----7--7---7--7---||
B|-7---7--7---7--7--7--7---7---7-----7--7---7---7--7----7--7---7--7---||
G|-7---7--7---7--7--7--7---7---7-----7--7---7---7--7----7--7---7--7---||
D|-7---7--7---7--7--7--7---7---7-----7--7---7---7--7----7--7---7--7---||
A|-5---5--5---5--5--5--5---5----------------------------5--5---5--5---||
E|--------------------------------------------------------------------||




Guitar Solo:

E|-----------------------------------------------------------------||
B|-17b========(17)-----17------------------------------------------||
G|-----------------18------------------------------------------18--||
D|-------------------------16h18---(18)\16----16---16--16--16------||
A|-----------------------------------------------------------------||
E|-----------------------------------------------------------------||




E|--------------------------------------------------------------||
B|---------------------------17---------------------------------||
G|-----------------------18------------------18-----------------||
D|-18b19r18------16--16---------18b19r18--16-----18b19r18--16---||
A|--------------------------------------------------------------||
E|--------------------------------------------------------------||




E|---------------------------------------------------||
B|---------------------------------------------------||
G|---------------------------------------------------||
D|-16/18--(18)\14--14/16--(16)\11---11----11--(11)\--||
A|---------------------------------------------------||
E|---------------------------------------------------||


KEY:
s = quick slide
/ = slide up
\ = slide down
h = hammer on
p = pull off
x = dead note
17b=======(17) = hold bend
T ------ = A chord that you use your thumb for the 6th string
comments
print report bad tab
7 comments total. Showing first comments.
+1 reply
R_H_C_P 1,984 wrote on July 14 2006, 07:42 am

Great, except you missed off the end solo and the chord progression behind that.

+1 reply
Wilomentena 221 wrote on October 23 2007, 12:48 pm

yea the chord progession behind that is jsut
l-12 -14 --------16

+1 reply
Wilomentena 221 wrote on October 23 2007, 12:49 pm

that didnt come out right but 12,12,13 on top 3 strings, then 14,14,14 adding the 16th fret on the top e at the end of each bar for variation

I want to post or [tab]
guest
You may want to rate the tab now too:
select rating
Please do not post tabs as comments. Select "correction" instead!