Oops, an error
Loading. Please wait.

Mommy Wheres Daddy Bass Tab

version 2
version 2

Whole song

Interactive

2,039 views 3 this week
1 commentread comment
1 2 3 4 5
accurate
x 4
add to favorites
launch autoscroll
font size
0
reset
guitar tuner
Tab Pro tools
  • play this tab
  • loop segment
  • change instrument
  • show fretboard
  • metronome
×
Best way to learn
"Mommy Wheres Daddy"
Autoscroll
slow
fast
+/-
esc
set tempo
stop
Difficulty
intermediate
Mommy Where's Daddy By Red Hot Chili Peppers
From The Album: Red hot chili Peppers (1984)
Tabbed by: FLIP

Intro And Verses:

G------------------------------------------------|
D----5h6-------x3-3------5h6-----5--x5p3---------|
A--5-----02--3---------5-----02------------------|
E------------------------------------------------|

And Here Are all the variations in right turn:
1(0.17 sec.):
G-----------------------x7---7------------|
D---5h6-------x3-3----------------5p3-----|
A-5-----02--3--------5-----5---5----------|
E-----------------------------------------|

2(0.28 sec.):
G--------------------------------------------|
D---5h6-------x3-3-------------------3-5-----|
A-5-----02--3---------5----------------------|
E------------------------x1-x2-x3-4----------|
3(0.38 sec.):
G-----------------------------------------|
D---5h6-------x3-3-----5h6--------3-5~~---|
A-5-----02--3--------5-----02-3-4---------|
E-----------------------------------------|
4(0.49 sec.):
G-----------------------x7---x10h12---7---x5p3---|
D---5h6-------x3-3-------------------------------|
A-5-----02--3--------5---------------------------|
E------------------------------------------------|
5(1.00 min.):
G-----------------------7-x-10-10-10-10h12-----|
D---5h6-------x3-3-----------------------------|
A-5-----02--3--------5-------------------------|
E----------------------------------------------|
6(1 min. 11 sec.):
G---------------------------------------------------|
D---5h6-------x3-3-----x5--7-5-3--------------------|
A-5-----02--3--------5-----------3h5~---------------|
E-------------------------------------3~~~~-5~~~~---|
7(1 min. 22 sec.):
G---7---10-12-10---------------------------------------|
D----------------12-10------7---x5h6-------------------|
A-5----------------------5-----------03---3-x3-5-------|
E------------------------------------------------------|

G----------------------------------|
D------------------------3h5-------|
A-3-x3-5----3--x5------------------|
E----------------0-1-2-3-----------|
8(1 min. 38 sec.):
G----------------------------------------------------|
D---5h6-------x3-3-----5h6-0--9-10--------10-12-10---|
A-5-----02--3--------5--------------10-12------------|
E----------------------------------------------------|
9(1 min. 49 sec.):
G-----------------------10----10--x8h10-------|
D---5h6-------x3-3----------------------------|
A-5-----02--3--------5-----5------------------|
E---------------------------------------------|
10(2.00 min.):
G-----------------------------------------------|
D---5h6-------x3-3----x5--7-5---7-5-------------|
A-5-----02--3-------5---------7-----7-6--3-2-4--|
E-----------------------------------------------|
11(
G-----------------------x7---x5----------------------------|
D---5h6-------x3-3-------------7---------------------------|
A-5-----02--3--------5-------------------------------------|
E---------------------------------0-1-2-3~~~~~--5~~~~~-----|
12(
G-------------------5-7----7-x5--------------------|
D---x5-x6-x7--0-7-0-----0--------5--0-5-0--3-5-----|
A-5------------------------------------------------|
E--------------------------------------------------|
13
G------------------------------------------|
D---5h6-------x3-3-----3--3--3--3-----3----|
A-5-----02--3--------5--5--5--5---3h5------|
E------------------------------------------|
14
G---------------------------------------------------------|
D---5h6-------x3-3-----5h6--------------------------------|
A-5-----02--3--------5-----02-3-4------2-2-2-2-2-2-2-2----|
E---------------------------------3h5---------------------|
15(
G----x10-12--10-0-10-0----------------------------------|
D----------------------9-11-----5-----------------------|
A-5-------------------------5----------3--0-5-0-3-------|
E----------------------------------3h5------------------|

G---------------------5h7-5--------------|
D---5h6------x3-3-----------------5p3----|
A-5-----02--3------55--------5-5---------|
E----------------------------------------|

G-------------------------------------------|
D---5h6-------0-3-3----------------3-5-3-5--|
A-5-----02--3---------5--------3-5----------|
E----------------------0-x1-x2--------------|

G-----x7--------5----------------------------------------|
D-------------7---7----5---------------------------------|
A-5------x5----------7---7---5-3-5-3-5-------------------|
E---------------------------------------0-0-0-1-2--5~~~~-|

THAT'S IT..ENJOY This slow 'n' Juicy funky song!!!.....
......oh..and...."Give daddy a kiss ..girl"....:D
comments
print report bad tab
1 comment total.
+1 reply
Tabarslap wrote on May 24 2008, 11:40 am

I would replace all your D--5h6- for D--3h4-. Except that, quite a good tab! Thanks for all the variations!

I want to post or [tab]
guest
You may want to rate the tab now too:
select rating
Please do not post tabs as comments. Select "correction" instead!