Oops, an error
Loading. Please wait.

Mommy Wheres Daddy Tab

version 3
version 3

Whole song

Interactive

3,011 views 9 this week
no commentswrite comment
1 2 3 4 5
excellent!
x 4
add to favorites
launch autoscroll
font size
0
reset
how to read this tab
guitar tuner
Tab Pro tools
  • play this tab
  • loop segment
  • change instrument
  • show fretboard
  • metronome
×
Best way to learn
"Mommy Wheres Daddy"
Autoscroll
slow
fast
+/-
esc
set tempo
stop
Contributor
Here's a very accurate tab for 'mommy where's daddy'. great fun jazz/funk song.
yes, theres weird chords but there you go :)

Enjoy!

Standard Tuning.

Intro

 F/D     C    Esus4
--13-----------------------------------------------------------------|
--10-----13---12\---------6---6h8------------------------------------|
--10-----14---14\-----5/7---7-----7~---5-7-5-------------------------|
--12-----x----x------------------------------6\5--6\5-5-5------------|
---------15---14\----------------------------------------5\3--33-3/5-|
---------------------------------------------------------------------|

Verse

(D, U, D, U feel)

   Dm7/B                            ?????
---7---7----------------------------7---9-----|
---6---6----------------------------6---8-----|
---5---5-------when trumpets play---4---6-----|
---7---7-------- (chord change)-----5---7-----|
----------------------------------------------|
----------------------------------------------|

Breakdown (before second solo section)

 B7
--7---|
--7---|
--8---| X8
--7---|
--9---|
--7---|

Solo/end

1st time is same as intro, second time is like this...

Key: |= repeat chord.
--13---------------------------8-----------------------------7~----|
--10--13--12\---12|||------6-8b-8~--6-8-6-8------------------6~----|
--10--14--14\---14|||---5/7-----------------7-5--------------5~----|
--12--x---x-----x-------------------------------6p5----------7~----|
------15--14\---14|||-------------------------------553-33/5-------|
-------------------------------------------------------------------|

End.

Tabbed by Guitar_Guyy @ ultimate-guitar.com
comments
print report bad tab
I want to post or [tab]
guest
You may want to rate the tab now too:
select rating
Please do not post tabs as comments. Select "correction" instead!