Oops, an error
Loading. Please wait.

Monarchy Of Roses Bass Tab

version 1
version 1

Whole song

Interactive

56,816 views 78 this week
4 commentsread comments
1 2 3 4 5
excellent!
x 19
add to favorites
launch autoscroll
font size
0
reset
guitar tuner
Autoscroll
slow
fast
+/-
esc
set tempo
stop
Help us to improve Ultimate-Guitar.com Take our survey!
×
Author
Red Hot Chili Peppers - Monarchy Of Roses

Intro
G|----------------|
D|----------------|
A|7-777-777-777-77|
E|----------------|

Verse/Chorus
G|--55--55--55--55|--99--99--99--99|x3
D|----------------|----------------|
A|3---3---3---3---|7---7---7---7---|
E|----------------|----------------|

G|--77--77--77--77|--44--44--44--44|
D|----------------|----------------|
A|5---5---5---5---|2---2---2---2---|
E|----------------|----------------|

G|--55--55--55--55|--99--99--99--99|x2
D|----------------|----------------|
A|3---3---3---3---|7---7---7---7---|
E|----------------|----------------|

G|--77--77--77--77|--44--44--44--44|x2
D|----------------|----------------|
A|5---5---5---5---|2---2---2---2---|
E|----------------|----------------|

Back To This Again...
G|----------------|
D|----------------|
A|7-777-777-777-77|
E|----------------|

Verse/Chorus

Solo

G|----------------|x8
D|----------------|
A|----------------|
E|0-000-000-000-00|

G|----------------|x8
D|----------------|
A|----7-5-----7-5-|
E|7-------7-7-----|

Verse/Chorus 

Outro
(improvise throughout pretty much)

G|----------------|----------------|----------------|----------------|
D|5-5-5-5-5-5-9-9-|7-7-7-7-7-7-7-7-|1010101010101212|1313131313131313|
A|----------------|----------------|----------------|----------------|
E|----------------|----------------|----------------|----------------|

G|----------------|
D|----------------|
A|10~-------------|
E|----------------|
Suggest correction
comments
print report bad tab
4 comments total. Showing first comments.
+1 reply
13Kelly13 114 wrote on August 31 2011, 02:16 pm

Damn, I was going to go ahead and tab out all the songs on their new album on bass but it seems like you got to it first, and did a good job at that.

0 reply
BIGSTEVE808 10 wrote on September 3 2011, 01:44 pm

If you watch the live videos, you can see Flea playing the intro something like this:

Intro
G|----------------|
D|----------------|
A|-77-77-77-77----|
E|0--0--0--0------|

Otherwise everything seems to be about right!

+2 reply
4useless 2,620 wrote on January 16 2012, 01:58 pm

BIGSTEVE808 - it's only for live performances but studio is just like peewee_123 did.

Only thing I dislike is second part of solo:

It goes like this:

-------------------
-------------------
7-7--5--7-7--5--7-7...
------------------- and so on till chorus.

I'm 100% sure 'cos I heard separated bass line.

guest
You may want to rate the tab now too:
select rating
Wanna post a correction for this tab? Suggest correction