Oops, an error
Loading. Please wait.

My Friends Tab

version 2
version 2

Intro

Whole song

Interactive

5,248 views 3 this week
no commentswrite comment
1 2 3 4 5
x 3
add to favorites
launch autoscroll
font size
0
reset
how to read this tab
guitar tuner
Autoscroll
slow
fast
+/-
esc
set tempo
stop
Help us to improve Ultimate-Guitar.com Take our survey!
×
Author
Difficulty
novice
-------------------------------------------------------------------------------
                             My Friends - Red Hot Chili Peppers
-------------------------------------------------------------------------------
Tabbed by: J.S.L
Email: jonas.lindstroem@yahoo.se

Tuning:

e|-----0-1---------------0-(0)-----0-1-----------------------0-(0)-----------|
B|-3-3-----3-3-(3)-----0---------------3-3---1-3-3-(3)-----0-----------------|
G|-----------------------------------------2---------------------------------|
D|---------------------------------------------------------------------------|
A|---------------------------------------------------------------------------|
E|---------------------------------------------------------------------------|

e|-0-2-5-5-7----------------0------------------------------------------------|
B|-----------6-(6)--------------3~~---------1--------------------------------|
G|---------------------2-2--------------2-2---0--(0)-------------------------|
D|---------------------------------------------------------------------------|
A|---------------------------------------------------------------------------|
E|---------------------------------------------------------------------------|




************************************

| /   slide up
| \   slide down
| h   hammer-on
| p   pull-off
| ~   vibrato
| +   harmonic
| x   Mute note
| b   Bend
| pb  Pre-bend
| br  Bend release
| pbr Pre-bend release
| brb Bend release bend

************************************
Suggest correction
Give kudos to tab author, rate the tab!
1 2 3 4 5
comments
print report bad tab
guest
You may want to rate the tab now too:
select rating
Wanna post a correction for this tab? Suggest correction