Oops, an error
Loading. Please wait.

My Friends Bass Tab

version 3
version 3

Whole song

Interactive

16,337 views 24 this week
1 commentread comment
1 2 3 4 5
excellent!
x 9
add to favorites
launch autoscroll
font size
0
reset
guitar tuner
Autoscroll
slow
fast
+/-
esc
set tempo
stop
Help us to improve Ultimate-Guitar.com Take our survey!
×
Author
Difficulty
intermediate
INTRO

                          Dsus2                   Dm(add9)
G|-10h12---------10-----|-------------------------10----------------10-----|
D|----------------------|-12----------------12-----------------------------|
A|----------------------|--------------------------------------------------|
E|----------------------|--------------------------------------------------|
   +      4      +        1     +     2     +     3     +     4     +     

   G/B                     Cadd9                   Dsus2           Dm(add9)
G|-------------------------------------------10----|-------------9---10----------10--|
D|-------------------------10----------------------|-12------------------------------|
A|-10----------------10h12-------------------------|---------------------------------|
E|-------------------------------------------------|---------------------------------|
   1  e  +  a  2  e  +  a  3  e  +  a  4  e  +  a    1   +   2   +   3   +   4   +     

   G               Cadd9
G|----------------------------------|
D|----------------------------------|
A|-10--------------8-------7--------|
E|----------------------------------|
   1   +   2   +   3   +   4   +       

Verse

   Dsus2               Dm(add9)              G/B                 Cadd9
G|---------------------10-------------10---|-12--------------------------------------|
D|-----------------------------------------|--------------------------10--------10---|
A|-5---------------------------------------|---------------------10h12-------12------|
E|-----------------------------------------|-----------------------------------------|
   1    +    2    +    3    +    4    +      1    +    2    +    3    +    4    +      
       My friends are  so  de-  pressed                     I    feel           the

   Dsus2               Dm(add9)              G/B                 Cadd9
G|----------------9----10-------------10---|-----------------------------------------|
D|-12--------------------------------------|-----------------------------------------|
A|-----------------------------------------|-10------------------8h10-8h10-8----8----|
E|-----------------------------------------|-----------------------------------------|
   1    +    2    +    3    +    4    +      1    +    2    +    3    +    4    +   
  ques- tion of your  lone li   ness.                      Con - fide         'cause

   Dsus2               Dm(add9)              G/B                 Cadd9
G|---------------------10----------------10-|-12--------------------------------------|
D|----------------12-------------10---12----|----------------12---9h10----------------|
A|--------------------------10h12-----------|-----------------------------------------|
E|-10---------------------------------------|-----------------------------------------|
   1    +    2    +    3    +    4    +       1    +    2    +    3    +    4    +   
  I'll be   on   your side.                                 You know I     will

   Dsus2               Dm(add9)              G/B                 Cadd9
G|---------------------10-------------------|-----------------------------------------|
D|-12-------------12------------------------|-5---------------------------------------|
A|------------------------------------------|-------------------------------3----4----|
E|--------------------------0---------------|-3------------------------5--------------|
   1    +    2    +    3    +    4    +       1    +    2    +    3    +    4    +   
                  You know  I        will

VERSE 2
       
   Dsus2               Dm(add9)              G/B                 Cadd9
G|--------------------------------------------|-----------------------------------------|
D|-------------------------3--------------3---|-----------------------------------------|
A|-5-----------------5----------------------5-|---------------------3----3---------3-4--|
E|--------------------------------------------|--3-------------3----------------5-------|
   1     +     2     +     3     +   4    +     1    +    2    +    3    +    4    +  
         Ex -girl-friend called me   up,                       a - lone           and
 
   Dsus2               Dm(add9)              G/B                 Cadd9
G|------------------------------------------|---------------------5------4-------2----|
D|----------------2----3--------------3--3--|-5--------------5------------------------|
A|-5----------------------------------------|-----------------------------------------|
E|------------------------------------------|-----------------------------------------|
   1    +    2    +    3    +    4    +       1    +    2    +    3    +    4    +  
  des-p'rate on  the  pri- son phone.                       They want           to

   Dsus2               Dm(add9)              G/B                 Cadd9
G|------------------------------------------|-----------------------------------------|
D|---------------------3--------------------|-----------------------------------------|
A|-5--------------5-------------------3h5---|---------------------3-------------------|
E|------------------------------------------|-3--------------3------------------------|
   1    +    2    +    3    +    4    +       1    +    2    +    3    +    4    + 
 give  her  se - ven years                                  for  be-ing  sad.

CHORUS

   C                                          Asus2                    
G|------------------------------------------|--------------------------9--9-----------|
D|---------------------5--------------------|----------------7--------------7----7----|
A|-3--------------3-------------------------|-0---------0-----------------------------|
E|------------------------------------------|-----------------------------------------|
   1    +    2    +    3    +    4    +       1    +    2    +    3    +    4    + 
             I         love                   all       of  you

   C                   D              Aadd9
G|------------------------------------------|-----------------------------------------|
D|------------------------------------7-----|---------------------7----7--------------|
A|-3--------------3----5---------5----------|-------------------0----0----------------|
E|------------------------------------------|-----------------------------------------|
   1    +    2    +    3    +    4    +       1    +    2    +    3    +    4    + 
            hurt      by        the  cold.

 C                                          Asus2                    
G|------------------------------------------|--------------------------9----9---------|
D|---------------------5--------------------|----------------7------------------------|
A|-3--------------3-------------------3-----|-0---------0-----------------------------|
E|------------------------------------------|-----------------------------------------|
   1    +    2    +    3    +    4    +       1    +    2    +    3    +    4    + 
             So       hard           and     lone -    ly,  too, 

   C                   D              Aadd9
G|------------------------------------------|--------------------------------------|
D|--------------------------7---------------|---------------------7-7-7-7-7-7-7-7--|
A|-3--------------3----5---------5----0-----|------0----0----0---------------------|
E|------------------------------------------|--------------------------------------|
   1    +    2    +    3    +    4    +       1    +    2    +    3   +   4   +
            when      you       don't know             your-self

VERSE 3

   Dsus2               Dm(add9)              G/B                 Cadd9
G|--------------------------------------------|-----------------------------------------|
D|-------------------2-----3--------------3-3-|--5-------------5------------------------|
A|-5-----------5------------------------------|---------------------3--------------3-4--|
E|--------------------------------------------|-----------------------------------------|
   1     +     2     +     3     +   4    +     1    +    2    +    3    +    4    +  
        My  friends are   so   dis-tressed.                 They're stand   -     ing
 
   Dsus2               Dm(add9)              G/B                 Cadd9
G|----------------2-------------------------|-----------------------------------------|
D|---------------------3--------------3-----|-------------------------------3----2----|
A|-5---------5---------------------------5--|---------------------3----3--------------|
E|------------------------------------------|-3--------------3h-5---------------------|
   1    +    2    +    3    +    4    +       1    +    2    +    3    +    4    +  
  on  the  brink of  emp - ti - ness.                       No  words            I

   Dsus2               Dm(add9)              G/B                 Cadd9
G|------------------------------------------|----------------2------------------------|
D|----------------2----3--------------3-3---|-5-----------------5---------------------|
A|-5---------5------------------------------|---------------------3-------------------|
E|------------------------------------------|-----------------------------------------|
   1    +    2    +    3    +    4    +       1    +    2    +    3    +    4    + 
  know of   can  ex - press                                 this emp-ti-ness

CHORUS

   C                                          Asus2                    
G|------------------------------------------|-----------------------------------------|
D|---------------------5--------------------|----------------7----7---------7---------|
A|-3--------------3-------------------------|-0------------------------0---------0--0-|
E|------------------------------------------|-----------------------------------------|
   1    +    2    +    3    +    4    +       1    +    2    +    3    +    4    + 
             I         love                   all       of  you

   C                   D              Aadd9
G|-------------------------------7----------|-----------------------------------------|
D|--------------------------7---------7-----|---------------------7----7---------7----|
A|-3--------------3----5--------------------|-------------------0----0--------0-------|
E|------------------------------------------|-----------------------------------------|
   1    +    2    +    3    +    4    +       1    +    2    +    3    +    4    + 
            hurt      by        the  cold.

 C                                          Asus2                    
G|------------------------------------------|-----------------------------------------|
D|---------------------5--------------------|----------------7----7---------7---------|
A|-3--------------3-------------------3-----|-0------------------------0--------------|
E|------------------------------------------|-----------------------------------------|
   1    +    2    +    3    +    4    +       1    +    2    +    3    +    4    + 
             So       hard           and     lone -    ly,  too, 

   C                   D              Aadd9
G|-------------------------------7----------|------------------------------------|
D|--------------------------7---------------|------------------------------------|
A|-3---------3----3----5--------------0-----|------0----0---0-0-0---0---0-0-0----|
E|------------------------------------------|------------------------------------|
   1    +    2    +    3    +    4    +       1    +    2   +   3   +   4   +
            when      you       don't know             your-self

GUITAR SOLO

   D                   Dm(add9)              G/B                 Cadd9
G|--------------------------------------------|--------------------------12-------------|
D|-------------------2-----3---------3----4-4-|--5-------------5----10------------------|
A|-5-----------5------------------------------|---------------------------------12-10---|
E|--------------------------------------------|-----------------------------------------|
   1     +     2     +     3     +   4    +     1    +    2    +    3    +    4    +  
 
   D                   Dm(add9)              G/B                 Cadd9
G|------------------------------------------|-----------4-----------------------------|
D|----------------2----3--------------3-----|-----------------------------------------|
A|-5---------5---------------------------5--|---------------------3----3---------3-4--|
E|------------------------------------------|-3------3-------3--5-------------5-------|
   1    +    2    +    3    +    4    +       1    +    2    +    3    +    4    +  

   D                   Dm(add9)              G/B                 Cadd9
G|------------------------------------------|---------------------5-------------------|
D|----------------2----3--------------3-2---|-----------5-----------------------------|
A|-5---------5------------------------------|--------------------------3---------3-4--|
E|------------------------------------------|-3-------3------3--5--------------5------|
   1    +    2    +    3    +    4    +       1    +    2    +    3    +    4    + 

   D                   Dm(add9)               G/B                 Dm(add9)
G|------------------------------------------|-4---------4\---2------------------------|
D|----------------2----3--------------3-3---|-5----5-5--5---------3-------------------|
A|-5---------5------------------------------|-----------------------------------------|
E|------------------------------------------|-----------------------------------------|
   1    +    2    +    3    +    4    +       1    +    2    +    3    +    4    + 

BRIDGE

   E                                  G6
G|----------------------------------|---------7-----------7------------|
D|-2---2---2---2---2---2---2---2-2--|-5---5-5-5---5-5-5---5---5---5----|
A|----------------------------------|----------------------------------|
E|----------------------------------|----------------------------------|
   1   +   2   +   3   +   4   +      1   +   2   +   3   +   4   + 
   I       -       mag -  ine  me     

   F#add4                             Fmaj7#11
G|-------------------------6--------|---------5-----------5-------5----|
D|-4---4---4---4---4---4-------4-4--|-3---3-------3---3-------3--------|
A|----------------------------------|----------------------------------|
E|----------------------------------|----------------------------------|
   1   +   2   +   3   +   4   +      1   +   2   +   3   +   4   + 
  taught   by     trag -  ed - y.                              Re  - 

   C                                  Bsus4
G|----------------------------------|----------------------------------|
D|---------------------5------------|---------------------4------------|
A|-3---3---3---3---3-----------3-3--|-2---2---2---2---2-----------2----|
E|----------------------------------|----------------------------------|
   1   +   2   +   3   +   4   +      1   +   2   +   3   +   4   + 
  lease                   is         peace.

   F5
G|----------------------------------|----------------------------------|
D|----------------------------------|----------------------------------|
A|----------------------------------|---------------------15-----------|
E|-1---1---1---1---1---1---1---1////|/13--13--13--13--13----------13---|
   1   +   2   +   3   +   4   +      1   +   2   +   3   +   4   + 

VERSE 4

   Dsus2               Dm(add9)              G/B                 Cadd9
G|-----------------------------------------|---------------------5--------------2----|
D|----------------2----3----------------3--|-5--------------3-5----------------------|
A|-5---------5------------------------5----|-----------------------------------------|
E|-----------------------------------------|-----------------------------------------|
   1    +    2    +    3    +    4    +      1    +    2    +    3    +    4    +      
        I   heard a   lit- tle  girl,                      and  what           she 

   Dsus2               Dm(add9)              G/B                 Cadd9
G|-----------------------------------------|----------------------------------|
D|----------------2----3---------3----3----|---------------------3---03530----|
A|-5---------5--------------------------5--|-------------3-3-3h5---3-------3--|
E|-----------------------------------------|-3-------3h5----------------------|
   1    +    2    +    3    +    4    +      1   +   2   +   3   +   4   +   
  said was  some-thing beau-ti- ful.                    To  give        your

   Dsus2               Dm(add9)              G/B                 Cadd9
G|------------------------------------------|--------------------------5---------5----|
D|----------------2----3--------------3-4---|-5---------5----5----7---------5h7-------|
A|-5---------5---------------------5--------|-----------------------------------------|
E|------------------------------------------|-----------------------------------------|
   1    +    2    +    3    +    4    +       1    +    2    +    3    +    4    +   
  love no  mat- ter  what,                                  is  what  she said

CHORUS

   C                                          Asus2                    
G|------------------------------------------|-----------------------------------------|
D|------------------------------------------|----------------7----7---------7---------|
A|-3--------------3----2--------------2-----|-0------------------------0---------0--0-|
E|------------------------------------------|-----------------------------------------|
   1    +    2    +    3    +    4    +       1    +    2    +    3    +    4    + 
             I         love                   all       of  you

   C                   D              Aadd9
G|------------------------------------------|-----------------------------------------|
D|--------------------------7---------------|---------------------7----7---------7----|
A|-3--------------3----5---------5----0-----|-------------------0----0--------0-------|
E|------------------------------------------|-----------------------------------------|
   1    +    2    +    3    +    4    +       1    +    2    +    3    +    4    + 
            hurt      by        the  cold.

 C                                          Asus2                    
G|------------------------------------------|-----------------------------------------|
D|---------------------5--------------------|----------------7----7-------------------|
A|-3--------------3-------------------3-----|-0---------------------------------------|
E|------------------------------------------|-----------------------------------------|
   1    +    2    +    3    +    4    +       1    +    2    +    3    +    4    + 
             So       hard           and     lone -    ly,  too, 

   C                   D              Aadd9
G|-------------------------------7----------|------------------------------------|
D|--------------------------7---------------|------------------------------------|
A|-3---------3----3----5--------------0-----|------0----0---0---0-0-0-0-0-0-0-0--|
E|------------------------------------------|------------------------------------|
   1    +    2    +    3    +    4    +       1    +    2   +   3   +   4   +
            when      you       don't know             your-self

OUTRO

   D               Dm(add9)          G/B                    Cadd9
G|---------------------------------|-----------------------------------------------|
D|---------------------------------|------------------------10----10-10-10-10-10---|
A|-5---5-5-5---5---8---8-8-8-8-8---|-10---10-10-10----10-10------------------------|
E|---------------------------------|-----------------------------------------------|
   1   +   2   +   3   +   4   +     1    +     2     +     3     +     4     +     

   D               Dm(add9)          G/B                    Cadd9
G|---------------------------------|-----------------------------------------------|
D|---------------------------------|------------------------10----10-10-10-10-10---|
A|-5---5-5-5---5---8---8-8-8-8-8---|-10---10-10-10----10-12------------------------|
E|---------------------------------|-----------------------------------------------|
   1   +   2   +   3   +   4   +     1    +     2     +     3     +     4     +   

 D               Dm(add9)          G/B                    Cadd9
G|---------------------------------|-----------------------------------------------|
D|---------------------------------|------------------------3-----3--3--3--3--3----|
A|-5---5-5-5---5---3---3-3-3-3-3---|-2----2--2--2-----2--2-------------------------|
E|---------------------------------|-----------------------------------------------|
   1   +   2   +   3   +   4   +     1    +     2     +     3     +     4     + 

  D               Dm(add9)          G/B                    Cadd9              D5
G|---------------------------------|-----------------------------------------------|
D|---------------------------------|------------------------10----10-10-10-10------|
A|-5---5-5-5---5---8---8-8-8-8-8---|-10---10-10-10----10-12-------------------12---|
E|---------------------------------|-----------------------------------------------|
   1   +   2   +   3   +   4   +     1    +     2     +     3     +     4     +   

G|---------------------------------|-----------------------------------------------|
D|---------------------------------|-----------------------------------------------|
A|---------------------------------|-----------------------------------------------|
E|-10------------------------------|-----------------------------------------------|
   1   +   2   +   3   +   4   +     1    +     2     +     3     +     4     +

Suggest correction
What's this?
You can suggest a correction to this tab. Community and Mods will review your correction and vote to approve or reject it.
comments
print report bad tab
1 comment total.
0 reply
waryrandom90 14 wrote on December 27 2015, 11:38 pm

Beautiful song

guest
You may want to rate the tab now too:
select rating
Please do not post tabs as comments. Select "correction" instead!