Oops, an error
Loading. Please wait.

My Friends Tab

version 3
version 3

Whole song

Interactive

7,643 views 1 this week
no commentswrite comment
1 2 3 4 5
accurate
x 6
add to favorites
launch autoscroll
font size
0
reset
how to read this tab
guitar tuner
Tab Pro tools
  • play this tab
  • loop segment
  • change instrument
  • show fretboard
  • metronome
×
Best way to learn
"My Friends"
Autoscroll
slow
fast
+/-
esc
set tempo
stop
Contributor
My Friends - Red Hot Chili Peppers

Tabbed by: dorgin
Tuning:EADGBE

Chords Used
-----------
         EADGBe
C       (x32010)
Am      (X02210)
D       (xx0232) 
E       (022100)
C#      (x46664) 
G       (355433)
F#      (244322)
F       (133211)   



| fb Full Bend
| *  Pick while in full bend
| /  slide up
| \  slide down
| h  hammer-on
| p  pull-off
| ~  vibrato
| +  harmonic
| x  Mute note

Song's Structure:

Intro
Verse 
Chorus
Verse
Chorus
Solo #1
Interlude
Verse
Chorus
Solo #2
Outro


Intro 
                 x2
e|-------------|---------0----------------0----------------------------------|
B|-------------|---------3----------------3---------------3------------------|
G|-------------|-----2--------------0h2-------------------0-------------0----|
D|---3\5---3---|--0-----------0--3------------3------0---------------0-----2-|
A|-------------|----------------------------------2-----------2--2h3---------|
E|-------------|-------------------------------------------------------------|


Verse 1

same as Intro

My friends are so depressed...


Verse 2

the chords come in

D   Fmaj7   G   C

Ex-girlfriend called me up...


Chorus x2

C   Am   C   D   Am

I love all of you...

until the solo it's pretty much the same


Solo #1  


e|---------------------------------------------------------------------------|
B|---------------------------------------------------------------------------|
G|---------------------------------------------------------------------------|
D|---------------------------------------------------------------------------|
A|--9--9--9--9--9--7/5---7--5/3--3/5\2--2--2--2--2/3--3--3--3/5-5--5---------|
E|---------------------------------------------------------------------------|



e|---------------------------------------------------------------------------|
B|----------------------------------------------------------------14fb--14*--|
G|---------------------------------------------------------------------------|
D|---------------------------------------------------------------------------|
A|--9--9--9--9--9--9--9--9/12--12--12--12--12--12--12/14\10--10--------------|
E|---------------------------------------------------------------------------|


e|---------------------------------------------------------------------------|
B|---------------------------------------------------------------------------|
G|---------------------------------------------------------------------------|
D|---------------------------------------------------------------------------|
A|--9--9--9--9--9--7/5---7--5/3--3/5\2--2--2--2--2/3--3--3--3/5-5--5---------|
E|---------------------------------------------------------------------------|



e|---------------------------------------------------------------------------|
B|---------------------------------------------------------------------------|
G|---------------------------------------------------------------------------|
D|---------------------------------------------------------------------------|
A|--9--9--9--9--9--9--9--9/12--12--12--12--12--12--12/14\10--10--10--3--3----|
E|---------------------------------------------------------------------------|


Interlude

E   D   C#
   
C   G   F#  
 
F(lots of struming here)

Imagine me...


Verse+Chorus

nothing changes


Solo #2 (Played fast) x2


e|----------------------------------|----------------------------------------|
B|----------------------------------|----------------------------------------|
G|----------------------------------|----------------------------------------|
D|----------------------------------|----------------------------------------|
A|--9--x7---10--x7---8--x7---7--x7--|--9--x7---10--x7---3--x16---------------|
E|----------------------------------|----------------------------------------|


Outro

               
e|----------0----------------0-----------------------------------------------|
B|----------3----------------3-----------------------------------------------|
G|------2--------------0h2-------------------0----------------0--------------|
D|--0-----------0--3------------3-------0-----------------0-------2----------|
A|----------------------------------2-----------2---2h3----------------------|
E|---------------------------------------------------------------------------|


e|---------------------------------------------------------------------------|
B|---3-----------------------------------------------------------------------|
G|---2---------------------------------------2-------------------------------|
D|---0---------0-------------------0---------0-------------------------------|
A|--------0--------0----------2----------------------------------------------|
E|----------------------1---------------1------------------------------------|


Great song, great band.

Hope you enjoy.

Rock on!
comments
print report bad tab
I want to post or [tab]
guest
You may want to rate the tab now too:
select rating
Please do not post tabs as comments. Select "correction" instead!