Oops, an error
Loading. Please wait.

My Lovely Man Bass

version 2
version 2

Whole song

Interactive

14,937 views 15 this week
1 commentread comment
1 2 3 4 5
x 13
add to favorites
launch autoscroll
font size
0
reset
guitar tuner
backing track
0:00
0:00
×
Best way to learn
"My Lovely Man"
Autoscroll
slow
fast
+/-
esc
set tempo
stop
[Verse, Main line]                                                       
G|-------------------------7------|
D|-----------------7-5-7/9---7-5--|
A|--7-5--7-5--7-5-----------------|
E|--------------------------------|

[Bridge]
G|------------------------------------------|
D|----------------------6-4--6-4--6-4--6-4--|
A|--7-5--7-5--7-5--7-5----------------------|
E|------------------------------------------|
                                                                                
[Cool Down Verse]                                                           
G|---------------------------------------------------------------|---------------|-------|
D|---------------------------------------------------------------|-------5-------|-------|
A|--0---0-0-0---2-2-2-2-x0h2---5/7--7-7--x5/7-7---x5/7--x5/7-7-7-|-x5/7----7-5\--|--7-7--|
E|----3------35--------------------------------------------------|---------------|-------|
                                                           *use at the end of line  ^^^  *

[Cool Down Verse Variation]                                                           
G|--------------------4------------------------------------------------------------------|
D|-------------------------------------------------------------------------------5-------|
A|--0---0-0-0-----0/2----2--2--2-2-2---x5/7--7-7--x5/7-7---x5/7--x5/7-7-7--x5/7----7-5\--|
E|----3------35--------------------------------------------------------------------------|
                                                          
[Bass Solo]
G|--------------7799-------------77----|
D|-----555777999--------555777999--55--|
A|--777--------------777---------------|
E|-------------------------------------|

[Guitar Solo]
(directly after bass solo)
G|--------------------------------|
D|--------------------------------|
A|--7-5--7-5--7-5----------5------|
E|-----------------5-3-5/7---5-3--|

[Last Cool Down Verse ending variation]                                                         
G|---------------------------------------12-----b14--12------------|
D|------------------------------14----12-----14------------12------|
A|--0---0-0-0---2-2-2-2--x0/2------14-------------------14----14\--|
E|----3------35----------------------------------------------------|

[End Song With]
G|--------------------------9-9-9~--|
D|----------------------------------|
A|--12-12-12~---14-14-14~---7-7-7~--|
E|--------------------------0-0-0~--|


************************************

| /  Slide up
| x  Dead note
| h  Hammer-on
| \  Slide down
| b  Bend
| ~  Vibrato

************************************
Suggest correction
comments
print report bad tab
1 comment total.
0 reply
JHarp87 12 Nov 16, 2016 09:45 PM

The cool town tabs and solo are great!

guest
You may want to rate the tab now too:
select rating
Wanna post a correction for this tab? Suggest correction