Oops, an error
Loading. Please wait.

My Lovely Man Tab

version 2
version 2

Whole song

Interactive

52,075 views 54 this week
4 commentsread comments
1 2 3 4 5
x 15
add to favorites
launch autoscroll
font size
0
reset
how to read this tab
guitar tuner
Autoscroll
slow
fast
+/-
esc
set tempo
stop
Help us to improve Ultimate-Guitar.com Take our survey!
×
Author
from "Blood Sugar Sex Magik"
Music by Anthony Kiedis Michael Balzary (Flea) John Frusciante Chad Smith
Warner Bros. Music 1991

Guitar 1
Moderately fast

e|------------------------|--------------------------|------------------------|
B|------------------------|--------------------------|------------------------|
G|------------------------|----------------7---------|------------------------|
D|------------------------|--7~--5~--7/9~-----9\7-5--|------------------------|
A|--7~--5~--7~--5~--7--5--|--------------------------|--7~--5~--7~--5~--7--5--|
E|------------------------|--------------------------|------------------------|

e|--------------------------|------------------------|--------------------------|
B|--------------------------|------------------------|--------------------------|
G|--------------------------|------------------------|----------------7---------|
D|--------------------------|------------------------|--7~--5~--7/9~-----9\7-5--|
A|----------------5---------|--7~--5~--7~--5~--7--5--|--------------------------|
E|--5~-3~---5/7~-----7\5-3--|------------------------|--------------------------|

e|------------------------|--------------------------|------------------------|
B|------------------------|--------------------------|------------------------|
G|------------------------|--------------------------|------------------------|
D|------------------------|--------------------------|------------------------|
A|--7~--5~--7~--5~--7--5--|----------------5~--------|--7~--5~--7~--5~--7--5--|
E|------------------------|--5~-3~---5/7~-----7\5-3--|------------------------|

e|-------------------10-----------|-------------------------|
B|--10~-8----10/12-------12\10-8--|-------------------------|
G|--------------------------------|--9-9--7---9---7---9--7--|
D|--------------------------------|-------------------------|
A|--------------------------------|-------------------------|
E|--------------------------------|-------------------------|

e|--------------------------|--------------------------|
B|--------------------------|--------------------------|
G|----------------7---------|--------------------------|
D|--7~--5~--7/9~-----9\7-5--|--------------------------|
A|--------------------------|--7--5--7--5--7--5--7--5--|
E|--------------------------|--------------------------|

e|--------------------------|------------------------|--------------------------|
B|--------------------------|------------------------|--------------------------|
G|--------------------------|------------------------|----------------7---------|
D|--6--4--6--4--6--4--6--4--|------------------------|--7~--5~--7/9~-----9\7-5--|
A|--------------------------|--7~--5~--7~--5~--7--5--|--------------------------|
E|--------------------------|------------------------|--------------------------|

e|------------------------|--------------------------|------------------------|
B|------------------------|--------------------------|------------------------|
G|------------------------|--------------------------|------------------------|
D|------------------------|--------------------------|------------------------|
A|--7~--5~--7~--5~--7--5--|----------------5~--------|--7~--5~--7~--5~--7--5--|
E|------------------------|--5~-3~---5/7~-----7\5-3--|------------------------|

e|-------------------10-----------|-------------------------|
B|--10~-8----10/12-------12\10-8--|-------------------------|
G|--------------------------------|--9-9--7---9---7---9--7--|
D|--------------------------------|-------------------------|
A|--------------------------------|-------------------------|
E|--------------------------------|-------------------------|

e|--------------------------|------------------|------------------|
B|--------------------------|------------------|------------------|
G|----------------7---------|------------------|------------------|
D|--7~--5~--7/9~-----9\7-5--|------------------|------------------|
A|--------------------------|------------------|------------------|
E|--------------------------|------------------|------------------|

e|-----------------------8-|---------x-10--------x-10----10-|
B|--x--8--x-8-----8----8-8-|--x------x-10--------x-10----10-|
G|--x--5--x-5-----5----5-5-|--x------x-7---------x-7-----7--|
D|--x--5--x-5-----5----5-5-|--x--7h9--------7h9--------9----|
A|-------------------------|--------------------------------|
E|-------------------------|--------------------------------|

e|----------------------------------|-------------------------------|
B|----------12--12--------12--12-12-|---------12--12-------12--12---|
G|----------12--12--x-----12--12-12-|--x---x--12--12--x----12--12---|
D|--12h14---x-------14--------x--x--|--14--x----------14---x--------|
A|--x---------------x---------------|--x--------------x-------------|
E|----------------------------------|-------------------------------|

e|---------8--------8-x--8-8-|--------x-10--------8--x-8--|
B|---------8--------8-x--8-8-|--------x-10--------8--x-8--|
G|----x----5--------5-x--5-5-|----x---x-7---------7--x-7--|
D|----5h7------5h7-----------|----7h9--------7h9----------|
A|---------------------------|----x----------x------------|
E|---------------------------|----------------------------|

e|------------------------------------|----------------------------------|
B|------------14--12------14---12-----|------------14--12-------14--12---|
G|--------x-x-12--12------12---12-----|------------12--12-------12--12---|
D|--12h14-------------14-----------14-|--x-12-14-x---------14------------|
A|--x---------------------------------|----------------------------------|
E|------------------------------------|----------------------------------|

e|----------8--------8---8-8--|----------10--------10---10---|
B|----------8--------8---8-8--|----------10--------10---10---|
G|----------7--------7---7-7--|----------9---------9----9----|
D|----5/7-x-----5/7----7------|----7/9-x------7/9-----9------|
A|----------------------------|------------------------------|
E|----------------------------|------------------------------|

e|-----------------------------------|------------------------------------|
B|-----------14--12------14--12------|------------14--12---------14--12---|
G|---------x-12--12------12--12------|------------12--12---------12--12---|
D|--12h14------------14-----------12-|--14-12-14----------12h14-----------|
A|-----------------------------------|------------------------------------|
E|-----------------------------------|------------------------------------|

e|----------8--------8---8-8--|----------10--------10---10---|
B|----------8--------8---8-8--|----------10--------10---10---|
G|----------7--------7---7-7--|----------9---------9----9----|
D|----5/7-x-----5/7----7------|----7/9-x------7/9-----9------|
A|----------------------------|------------------------------|
E|----------------------------|------------------------------|

e|------------------------------------|---------------------------------------|
B|------------14--12------14--12------|-----x-x-x-14--12----------------------|
G|--------x-x-12--12------12--12------|-----x-x-x-12--12----------------------|
D|--12h14-------------14-----------14-|--14---------------14--14--14p12h14p12-|
A|--x---------------------------------|---------------------------------------|
E|------------------------------------|---------------------------------------|

e|------------------------|--------------------------|------------------------|
B|------------------------|--------------------------|------------------------|
G|------------------------|----------------7---------|------------------------|
D|------------------------|--7~--5~--7/9~-----9\7-5--|------------------------|
A|--7~--5~--7~--5~--7--5--|--------------------------|--7~--5~--7~--5~--7--5--|
E|------------------------|--------------------------|------------------------|

e|--------------------------|------------------------|
B|--------------------------|------------------------|
G|--------------------------|------------------------|
D|--------------------------|------------------------|
A|----------------5~--------|--7~--5~--7~--5~--7--5--|
E|--5~-3~---5/7~-----7\5-3--|------------------------|

e|-------------------10-----------|-------------------------|
B|--10~-8----10/12-------12\10-8--|-------------------------|
G|--------------------------------|--9-9--7---9---7---9--7--|
D|--------------------------------|-------------------------|
A|--------------------------------|-------------------------|
E|--------------------------------|-------------------------|

e|--------------------------|------------------|------------------|
B|--------------------------|------------------|------------------|
G|----------------7---------|------------------|------------------|
D|--7~--5~--7/9~-----9\7-5--|------------------|------------------|
A|--------------------------|------------------|------------------|
E|--------------------------|------------------|------------------|

                                  Bm7
e|----------8------------------|--10-10-10-10--10--10--10--10--10--10-|
B|----------8------------------|--10-10-10-10--10--10--10--10--10--10-|
G|----x---x-x--x-x----x--x-x-x-|--7--7--7--7---7---7---7---7---7---7--|
D|----5h7-x-5--x-5h7--x--x-x-x-|--9--9--9--9---9---9---9---9---9---9--|
A|----x---x----x-x----x--x-x-x-|--------------------------------------|
E|-----------------------------|--------------------------------------|

     Em7
e|---12-12-12-12-12-12-12-12--12-12--12-12-12-|----12-12---12-12---x---12-12-12-|
B|---12-12-12-12-12-12-12-12--12-12--12-12-12-|----12-12---12-12---x---12-12-12-|
G|---12-12-12-12-12-12-12-12--12-12--12-12-12-|----12-12---12-12---x---12-12-12-|
D|--------------------------------------------|---------------------------------|
A|--------------------------------------------|---------------------------------|
E|--------------------------------------------|---------------------------------|

    Am7                              Bm7
e|--8--8-8--8-8-8-8--8-8--8-8-8-|----10---10-10-10-10-------10-|
B|--8--8-8--8-8-8-8--8-8--8-8-8-|----10---10-10-10-10-------10-|
G|--5--5-5--5-5-5-5--5-5--5-5-5-|----7----7--7--7--7--------7--|
D|--7--7-7--7-7-7-7--7-7--7-7-7-|----9----9--9--9--9--------9--|
A|------------------------------|------------------------------|
E|------------------------------|------------------------------|

e|------------------|------------------|------------------|------------------|
B|------------------|------------------|------------------|------------------|
G|------------------|------------------|------------------|------------------|
D|------------------|------------------|------------------|------------------|
A|------------------|------------------|------------------|------------------|
E|------------------|------------------|------------------|------------------|

e|------------------|------------------|------------------|------------------|
B|------------------|------------------|------------------|------------------|
G|------------------|------------------|------------------|------------------|
D|------------------|------------------|------------------|------------------|
A|------------------|------------------|------------------|------------------|
E|------------------|------------------|------------------|------------------|

e|------------------|------------------|----------------------------|
B|------------------|------------------|--12------------12----12----|
G|------------------|------------------|--14b-----------14b---14b---|
D|------------------|------------------|----------------------------|
A|------------------|------------------|----------------------------|
E|------------------|------------------|----------------------------|

e|----------------------------|-----------------------------|
B|--12--------------------12--|--14------14/15----15----15--|
G|--14b-------------14b-------|-----------------------------|
D|----------------------------|-----------------------------|
A|----------------------------|-----------------------------|
E|----------------------------|-----------------------------|

e|--------------------------------|---------------------------|
B|--12------12----12--------12----|--8-------------8-----6----|
G|--14b---------------12-14----14-|--10b-----------10b---8b---|
D|--------------------------------|---------------------------|
A|--------------------------------|---------------------------|
E|--------------------------------|---------------------------|

e|-------------------------|-------------------------------|
B|--5------------5----5----|--3----------------------------|
G|--7b-----------7b---7b---|--5b-----------7-7-7-7-7-7-7-7-|
D|-------------------------|-------------------------------|
A|-------------------------|-------------------------------|
E|-------------------------|-------------------------------|

e|-----------------------------|--12b-12-12------12-----------------------------|
B|-----------------------------|-------------15b----15p12-------15----12-----12-|
G|--5b---5b---5b---5r-5b-------|--------------------------15-14----14----14b----|
D|-----------------------------|------------------------------------------------|
A|-----------------------------|------------------------------------------------|
E|-----------------------------|------------------------------------------------|

e|---------------------------------------------|
B|-------------------15------------------12----|
G|--14r-12-14-12-14b----14r-12-14-12-14b----14b|
D|---------------------------------------------|
A|---------------------------------------------|
E|---------------------------------------------|

e|----------------------------------------|
B|---15------12-----------------15--------|
G|------14b-----14p12-14p12-14b----14r-12-|
D|----------------------------------------|
A|----------------------------------------|
E|----------------------------------------|

e|------------------------------------------|
B|------------15------------------15--------|
G|--14p12-14b----14r-12-14-12-14b----14r-12-|
D|------------------------------------------|
A|------------------------------------------|
E|------------------------------------------|

e|------------------------------------------|------------------------15~-----|
B|------------15-----15-----15-----12-------|----17--17--17----14------------|
G|--14-12-14b----14b----14b----14b----14/16b|--------16b-16-16----16---------|
D|------------------------------------------|--------------------------------|
A|------------------------------------------|--------------------------------|
E|------------------------------------------|--------------------------------|

e|--15p12----12-------12-------15----17b---|--18r--------13---15b-----|
B|--------15----x-15b----15h17----17-------|--------16b---------------|
G|-----------------------------------------|--------------------------|
D|-----------------------------------------|--------------------------|
A|-----------------------------------------|--------------------------|
E|-----------------------------------------|--------------------------|

e|------------------------|--------------------------|------------------------|
B|------------------------|--------------------------|------------------------|
G|------------------------|----------------7---------|------------------------|
D|------------------------|--7~--5~--7/9~-----9\7-5--|------------------------|
A|--7~--5~--7~--5~--7--5--|--------------------------|--7~--5~--7~--5~--7--5--|
E|------------------------|--------------------------|------------------------|

e|--------------------------|------------------------|
B|--------------------------|------------------------|
G|--------------------------|------------------------|
D|--------------------------|------------------------|
A|----------------5~--------|--7~--5~--7~--5~--7--5--|
E|--5~-3~---5/7~-----7\5-3--|------------------------|

e|-------------------10-----------|-------------------------|
B|--10~-8----10/12-------12\10-8--|-------------------------|
G|--------------------------------|--9-9--7---9---7---9--7--|
D|--------------------------------|-------------------------|
A|--------------------------------|-------------------------|
E|--------------------------------|-------------------------|

e|--------------------------|------------------|------------------|
B|--------------------------|------------------|------------------|
G|----------------7---------|------------------|------------------|
D|--7~--5~--7/9~-----9\7-5--|------------------|------------------|
A|--------------------------|------------------|------------------|
E|--------------------------|------------------|------------------|

e|---------8--------8-x--8-8-|--------x--10-------10--x-10--|
B|---------8--------8-x--8-8-|--------x--10-------10--x-10--|
G|----x----5--------5-x--5-5-|----x---x--7--------7---x-7---|
D|----5h7------5h7-----------|----7h9--------7h9------------|
A|---------------------------|----x----------x--------------|
E|---------------------------|------------------------------|

e|-----------------------------------|------------------------------------|
B|-----------12--12------14---12-----|------------14--12---------14--12---|
G|---------x-12--12------12---12-----|------------12--12---------12--12---|
D|--12h14------------14-----------12-|--14-12-14----------12-14-----------|
A|--x--------------------------------|------------------------------------|
E|-----------------------------------|------------------------------------|

e|---------8--------8-x--8-8-|--------x--10-------10--x-10--|
B|---------8--------8-x--8-8-|--------x--10-------10--x-10--|
G|----x----5--------5-x--5-5-|----x---x--7--------7---x-7---|
D|----5h7------5h7-----------|----7h9--------7h9------------|
A|---------------------------|----x----------x--------------|
E|---------------------------|------------------------------|

e|-----------------------------------|------------------------------|
B|-----------14--12------14---12-----|------14--12---------14--12---|
G|---------x-12--12------12---12-----|------12--12---------12--12---|
D|--12h14------------14-----------12-|--------------12h14-----------|
A|--x--------------------------------|------------------------------|
E|-----------------------------------|------------------------------|

e|---------8--------8-x--8-8-|--------x--10-------10--x-10--|
B|---------8--------8-x--8-8-|--------x--10-------10--x-10--|
G|----x----5--------5-x--5-5-|----x---x--7--------7---x-7---|
D|----5h7------5h7-----------|----7h9--------7h9------------|
A|---------------------------|----x----------x--------------|
E|---------------------------|------------------------------|

e|-----------------------------------|------------------------------------|
B|-----------14--12------14--12------|------------14--12---------14--12---|
G|---------x-12--12------12--12------|------------12--12---------12--12---|
D|--12h14------------14-----------12-|--14-12-14----------12h14-----------|
A|--x--------------------------------|------------------------------------|
E|-----------------------------------|------------------------------------|

e|---------8--------8-x--8-8-|--------x-10--------10--x-10--|
B|---------8--------8-x--8-8-|--------x-10--------10--x-10--|
G|----x----5--------5-x--5-5-|----x---x-7---------7---x-7---|
D|----5h7------5h7-----------|----7h9--------7h9------------|
A|---------------------------|----x----------x--------------|
E|---------------------------|------------------------------|

e|------------------------------------|
B|------------14--12------14--12------|
G|--------x-x-12--12------12--12------|
D|--12h14-------------14-----------14-|
A|--x---------------------------------|
E|------------------------------------|

e|--------------------------------------------|--------------------|
B|----------14p12----14p12----14p12----14p12--|----------------12~-|
G|----12-12-------12-------12-------12--------|----------------12~-|
D|--------------------------------------------|----------------14~-|
A|--------------------------------------------|--------------------|
E|--------------------------------------------|--------------------|

e|------------------|-------------------|--------------------|-------------------|
B|------------------|---------------3---|-------3--------3---|-------------------|
G|------------------|-------------------|--------------------|----------------2r-|
D|------------------|-------------------|--------------------|-------------------|
A|------------------|-------------------|--------------------|-------------------|
E|------------------|-------------------|--------------------|-------------------|

e|--------------------|-------------------|--------------------------|
B|--------------------|-----3-------------|--------------------------|
G|---0-------------2b-|-------------------|--2-0----2--0-------------|
D|--------------------|-------------------|------2--------2--0--2----|
A|--------------------|-------------------|--------------------------|
E|--------------------|-------------------|--------------------------|

e|--------------------|--------------------|--------------------|
B|----------------15b-|----------------12--|--------------------|
G|--------------------|--------------------|----------------12--|
D|--------------------|--------------------|--------------------|
A|--------------------|--------------------|--------------------|
E|--------------------|--------------------|--------------------|

e|------------------|------------------|------------------12--|------------------|
B|------------------|------------------|------------12--------|------------------|
G|------------------|------------------|----------------------|------------------|
D|------------------|------------------|----------------------|------------------|
A|------------------|------------------|----------------------|------------------|
E|------------------|------------------|----------------------|------------------|

e|----------15------------------|--14--------------12----------------|
B|-------------12--------12-----|--------12--------------12----------|
G|----------------12--12----12--|------------------------------12----|
D|------------------------------|------------------------------------|
A|------------------------------|------------------------------------|
E|------------------------------|------------------------------------|

e|--------------------------------------|--------------------|------------------|
B|--15----12----------14----12----------|--------------------|------------------|
G|--------------12----------------12----|--------------------|------------------|
D|--------------------------------------|--14----------------|------------------|
A|--------------------------------------|--------------------|------------------|
E|--------------------------------------|--------------------|------------------|

e|------------------|------------------|--------------------|------------------||
B|------------------|------------------|--------------------|------------------||
G|------------------|------------------|-----------------12-|------------------||
D|------------------|------------------|--------------------|------------------||
A|------------------|------------------|--------------------|------------------||
E|------------------|------------------|--------------------|------------------||

************************************

| /  Slide up
| \  Slide down
| ~  Vibrato
| x  Dead note
| h  Hammer-on
| p  Pull-off
| b  Bend
| r  Release

************************************
Suggest correction
comments
print report bad tab
4 comments total. Showing first comments.
+7 reply
Strat_Monkey 172 Jun 09, 2005 12:00 AM

Not at all bad. It could be a little better if you say which part of the song is which, y'know bridge/chorus etc, but other than that it's great.

0 reply
Fireheads 54 Aug 17, 2009 09:53 AM

Great tab

0 reply
blackwidow97 42 Jan 06, 2014 01:53 PM

man i find those chorus chords difficult to form quickly enough why must jf be such a god

guest
You may want to rate the tab now too:
select rating
Wanna post a correction for this tab? Suggest correction