Oops, an error
Loading. Please wait.

On Mercury bass

version 2
version 2

Whole song

Interactive

15,444 views 3 this week
9 commentsread comments
1 2 3 4 5
x 23
add to favorites
×
Save as Personal and add changes to this tab that will be seen only by you. Learn more ›
×
You can save this tab as Personal to edit and correct it or add notes. All changes will be seen only by you. Learn more »
launch autoscroll
font size
0
reset
guitar tuner
edit
Autoscroll
slow
fast
+/-
esc
set tempo
stop
Author
Difficulty
intermediate
Bass Fg. 1 (Verse 1)

---------------|------------------|-------------------|--------------------|
|--------------|------------------|--7-7-7------------|--------------------|
|-------9-9-9--|10-10-9-9-7-7-9---|----------7-7-7----|-7-7-9-9-10-10-9----|
|-7------------|------------------|-------------------|--------------------|


Pre-Chorus

"Come again and tell me what you're going through...."

|------------------------|-----------------------|-------------------|
|----5------5--5-------5-|---5----7-----0--5--7--|--4-----4--4----4--|
|------------------------|-----------------------|-------------------|
|------------------------|-----------------------|-------------------|

|------------------------|
|---4--------------------|
|------4--5--5--7--7-----|

"Like a girl who only knew her child was due...."

|-------------------------|-----------------------|---------------------|
|----5------5--5------5---|---7/9----7---5---0----|--4-----4-4-4-----4--|
|-------------------------|-----------------------|---------------------|
|-------------------------|-----------------------|---------------------|

|--------------------------|
|--4--4--4--4--4--4--4-----|
|--------------------------|
|-----------------------0--|


Chorus 

|------------------------|----------7---------|------------------|
|--------------9---------|-------7------7-----|-----------7------|
|--------9--------9--0---|---5-------------X--|------7-------7---|
|----7-------------------|--------------------|---5--------------|

|--------------9---------|--------------------|----------7-------|
|---------9-------9------|------------9-------|------7------7----|
|---7--------------------|--------9------9--0-|--5---------------|
|------------------------|---7----------------|------------------|

|------------------------|---------------------------------------|
|--------------7---------|---------------------------------------|
|---------7-------7------|---------------------------------------|
|--5-----------------0---|-2-------2--------------2-----2/-------|

x2
Same apart from on last bar end the chorus with:

|------------------------|
|----11-------8----------|
|------------------------|
|------------------------|

Bass Fig 1. (Verse2)

Pre-Chorus

Chorus

Interlude

|--------------------------|----|------------------------|
|----9--9--9--9--9---------|----|--7--7------7--7--9-----|
|-------------------9--9---|----|---------------------7--|
|--------------------------|----|------------------------|

|--------------------------|----|------------------------|
|--------------------------|----|------------------------|
|-------------------9--9---|----|-----------------7--7---|
|----7--7--7--7--7---------|----|--5--5--5--5--5---------|

Verse

Last Chorus

|--------------------------|-----------7----------|-------------9---------|
|----------9---------------|------7-------7-------|-------9-------9-------|
|------9------9----0-------|--5-------------------|--7--------------------|
|---7----------------------|--------------------0-|---------------------0-|

|--------------------------|----------------7-----|-----------------------|
|------------9-------------|---------7------------|-11--12--11--8---------|
|--------9-------9---0-----|--5-------------------|-----------------------|
|--7-----------------------|----------------------|-----------------------|

|--------------------------|
|---------------------8\---|
|--------------------------|
|--------------------------|


The End.

Such a beautiful song by my fav band but not many people may have noticed it. If
you havent got this yet, get this song from the By the Way album. I enjoy playin
the chorus especially such a funky yet smooth bass line. Long live Micheal "Flea"
Balzary!

Dan Gilks.






            
            
Suggest correction
Creating personal tab
Creating personal tab
You can edit any tab online and save it as your Personal.

You can edit, replace or remove any tab part or add personal notes – all changes will be seen only by you.

Personal tabs can be accessed anytime from any device, even offline.
Learn more »
comments
print report bad tab
9 comments total. Showing first comments.
0 reply
DanG 51 Oct 31, 2005 10:35 AM

rate it omg

0 reply
BassistGuy 111 Feb 16, 2006 11:47 AM

Seems pretty flawless to me. 5/5

0 reply
bassist792 81 Sep 09, 2006 02:53 AM

nice great tab and flea rocks! 5*****

guest
You may want to rate the tab now too:
select rating
Wanna post a correction for this tab? Suggest correction