Oops, an error
Loading. Please wait.

Otherside Tab

1,509,394 views 4,422 this week
107 commentsread comments
1 2 3 4 5
excellent!
x 372
add to favorites
launch autoscroll
font size
0
reset
how to read this tab
guitar tuner
Autoscroll
slow
fast
+/-
esc
set tempo
stop
Help us to improve Ultimate-Guitar.com Take our survey!
×
Author
[Chorus]
e|------------------------------------|
B|------------------------------------|
G|------------------------------------|
D|---------7-7-9-7--------------------|
A|---7-7-7---------10-7---5-5-5-------|
E|------------------------------------|

e|------------------------------------|
B|------------------------------------|
G|------------------------------------|
D|---------7-7-9-7--------------------|
A|---7-7-7---------10-7-7-7-7--5-5-5--|
E|------------------------------------|

e|------------------------------------|
B|------------------------------------|
G|------------------------------------|
D|---------7-7-9-7--------------------|
A|---7-7-7---------10-7-7-7-7--5-5-5--|
E|------------------------------------|

e|------------------------------------|
B|------------------------------------|
G|-------------9-9--------------------|
D|---------7-7-----9-9----------------|
A|---7-7-7----------------------------|
E|------------------------------------|


[Verse 1]
e|------------------15----------------|   
B|----13----12------------------------|
G|------------------------------------|
D|------------------------------------| x3
A|------------------------------------|  
E|------------------------------------|  
                                                                               
e|-----3------------------5-----------|     
B|-----3------------------5-----------|  
G|-----4------------------6-----------|
D|-----5------------------7-----------|  
A|-----5------------------7-----------|   
E|-----3------------------5-----------| 


e|------------------15----------------|   
B|----13----12------------------------|
G|------------------------------------|
D|------------------------------------| x3
A|------------------------------------|  
E|------------------------------------|  
                                                                                
e|-----3------------------5-----------|     
B|-----3------------------5-----------|  
G|-----4------------------6-----------|
D|-----5------------------7-----------| x3
A|-----5------------------7-----------|   
E|-----3------------------5-----------| 

e|-----3-----------|-------5----------|     
B|-----3-----------|-------5----------|  
G|-----4-----------|-------6----------|
D|-----5-----------|-------7----------|
A|-----5-----------|-------7----------|   
E|-----3-----------|-------5----------| 


[Chorus]
e|------------------------------------|
B|------------------------------------|
G|------------------------------------|
D|---------7-7-9-7--------------------|
A|---7-7-7---------10-7-7-7-7--5-5-5--|
E|------------------------------------|


e|------------------------------------|
B|------------------------------------|
G|------------------------------------|
D|---------7-7-9-7--------------------|
A|---7-7-7---------10-7-7-7-7--5-5-5--|
E|------------------------------------|


e|------------------------------------|
B|------------------------------------|
G|-------------9-9-9-9----12-12-12-12-|
D|---------7-7------------------------|
A|---7-7-7----------------------------|
E|------------------------------------|


[Verse 2]
e|------------------15----------------|   
B|----13----12------------------------|  
G|------------------------------------| x3
D|------------------------------------|  
A|------------------------------------|    
E|------------------------------------|  

e|-----3------------------5-----------|     
B|-----3------------------5-----------| 
G|-----4------------------6-----------|  
D|-----5------------------7-----------| 
A|-----5------------------7-----------|   
E|-----3------------------5-----------|  
  

e|------------------15----------------|   
B|----13----12------------------------|  
G|------------------------------------| x3
D|------------------------------------|  
A|------------------------------------|    
E|------------------------------------|  

e|-----3------------------5-----------|     
B|-----3------------------5-----------| 
G|-----4------------------6-----------| x3 
D|-----5------------------7-----------| 
A|-----5------------------7-----------|   
E|-----3------------------5-----------| 

e|-----3-----------|-------5----------|     
B|-----3-----------|-------5----------|  
G|-----4-----------|-------6----------|
D|-----5-----------|-------7----------|
A|-----5-----------|-------7----------|   
E|-----3-----------|-------5----------| 
 
  
[Chorus]
e|------------------------------------|
B|------------------------------------|
G|------------------------------------|
D|---------7-7-9-7--------------------|
A|---7-7-7---------10-7-7-7-7--5-5-5--|
E|------------------------------------|


e|------------------------------------|
B|------------------------------------|
G|------------------------------------|
D|---------7-7-9-7--------------------|
A|---7-7-7---------10-7-7-7-7--5-5-5--|
E|------------------------------------|


e|------------------------------------|
B|------------------------------------|
G|-------------9-9-9-9----12-12-12-12-|
D|---------7-7------------------------|
A|---7-7-7----------------------------|
E|------------------------------------|


[Instrumental]              
e|----0--0--0--(0)--(0)--(0)----------|  
B|----0--0--0---12+-12+--12+----------|
G|------------------------------------|
D|------------------------------------|
A|------------------------------------|
E|------------------------------------|

            
e|----5+-0-0----(0)-(0)-(0)------------|  
B|-------0-0----12+-12+-12+------------|
G|-------------------------------------|
D|-------------------------------------|
A|-------------------------------------|
E|-------------------------------------|


[Bridge]          
e|----0--0--0--(0)--(0)--(0)----------|  
B|----0--0--0---12+-12+--12+----------|
G|------------------------------------|
D|------------------------------------|
A|------------------------------------|
E|------------------------------------|

              
e|----0-0-0----(0)-(0)-(0)------------|  
B|----0-0-0----12+-12+-12+------------|
G|------------------------------------|
D|------------------------------------|
A|------------------------------------|
E|------------------------------------|


[Instrumental]
e|--5---5-5---5-5---12---12-12---12-12----------|
B|--5---5-5---5-5---10---10-10---10-10----------|
G|----------------------------------------------|
D|----------------------------------------------|
A|----------------------------------------------|
E|----------------------------------------------|

e|--15--12-12-12---12-12-12-15-12-12-15-12-15-12----| 
B|--13--10-10-10---10-10-10-13-13-13-13-10-13-10----|
G|--------------------------------------------------|
D|--------------------------------------------------|
A|--------------------------------------------------|
E|--------------------------------------------------|


[Chorus]
e|--5---5-5---5-5---12---12-12---12-12----------|
B|--5---5-5---5-5---10---10-10---10-10----------|
G|----------------------------------------------|  
D|----------------------------------------------|
A|----------------------------------------------|
E|----------------------------------------------|

e|--15--12-12-12---12-12-12-15-12-12-15-12-15-12----| 
B|--13--10-10-10---10-10-10-13-13-13-13-10-13-10----|
G|--------------------------------------------------|    x5
D|--------------------------------------------------|
A|--------------------------------------------------|
E|--------------------------------------------------|


[End]
A5



***********************************
| +   Natural harmonic
|(n)  Ghost note
***********************************

Suggest correction
comments
print report bad tab
107 comments total. Showing first comments.
+1 reply
neger hans 80 wrote on April 14 2002, 12:00 am

great tab dude!! nice work

0 reply
LimeGreenLegend 45 wrote on May 4 2002, 12:00 am

Man, this tab rocks. Good job.

0 reply
ultimatesk8er 10 wrote on May 11 2002, 12:00 am

sounds exactly like it

guest
You may want to rate the tab now too:
select rating
Please do not post tabs as comments. Select "correction" instead!