Oops, an error
Loading. Please wait.

Otherside Bass

version 3
version 3

Whole song

5,830 views 84 this week
no commentswrite comment
1 2 3 4 5
2 more votes to show rating
add to favorites
launch autoscroll
font size
0
reset
guitar tuner
backing track
0:00
0:00
×
Best way to learn
"Otherside"
Autoscroll
slow
fast
+/-
esc
set tempo
stop
Tabbed by: jaronthebassist
                                         Otherside                                               


                                                              Red Hot Chili Peppers
Bass



      Q.     Q    E  Q       Q.     Q    E  Q       Q.     Q    E  E  E     Q.     Q.     Q       
G||-----------------------|----------------------|-----------------------|----------------------||
D||*----------------------|----------------------|-----------------------|---------------------*||
A||*----------------------|----------------------|--3------3----3--3-----|---------------------*||
E||---5------5----5--3----|--1------1----1--1----|--------------------0--|--3------3------3-----||


  Q    Q    Q    Q         Q.     Q    E  Q       Q.     Q    E  Q       Q.     Q    E  E  E   
----------------------||-----------------------|----------------------|-----------------------|
----------------------||*----------------------|----------------------|-----------------------|
-------3----2---------||*----------------------|----------------------|--3------3----3--3-----|
--3--------------3----||---5------5----5--3----|--1------1----1--1----|--------------------0--|


  H        Q    Q         Q    E  Q    E  Q         Q    E  Q    E  Q      
----------------------||-----------------------||-------------------------|
---------------------*||-----------------------||*------------------------|
-----------5---------*||-----------------------||*------------------------|
--3-------------3-----||--3----3--3----3--3----||---5----5--5----5--5S----|


   Q     E   Q     E   Q       Q    E  Q    E  Q         Q     E   Q     E   Q     
----------------------------|------------------------|----------------------------|
----------------------------|------------------------|----------------------------|
----------------------------|------------------------|----------------------------|
--12----12--12----12--12----|--5----5--5----5--5S----|--12----12--12----12--12----|


  Q    E  Q    E  Q         Q     E   Q     E   Q       W                   W                 
------------------------|----------------------------|-------------------|-------------------|
------------------------|----------------------------|-------------------|-------------------|
------------------------|----------------------------|-------------------|-------------------|
--5----5--5----5--5S----|--12----12--12----12--12----|--3----------------|--5----------------|


  W                     W                   W                   Q    E  Q    E  E  E   
--------------------||-------------------|-------------------|------------------------|
-------------------*||-------------------|-------------------|------------------------|
-------------------*||-------------------|-------------------|------------------------|
--L-----------------||--3----------------|--5----------------|--3----3--3----3--3--3--|


  Q    E  Q    E  E  E     Q    E  Q    E  E  E     E  E  E  E  E  E  E  E   
------------------------|------------------------|--------------------------|
------------------------|------------------------|--------------------------|
------------------------|------------------------|--------------------------|
--3----3--3----3--3--3--|--5----5--5----5--5--5--|--5--0--5--0--5--0--5--0--|


    Q.     Q    E  Q       Q.     Q    E  Q       Q.     Q    E  E  E     Q.     Q.     Q       
|-----------------------|----------------------|-----------------------|----------------------||
|*----------------------|----------------------|-----------------------|---------------------*||
|*----------------------|----------------------|--3------3----3--3-----|---------------------*||
|---5------5----5--3----|--1------1----1--1----|--------------------0--|--3------3------3-----||


  Q    Q    Q    Q       Q.     Q    E  Q       Q.     Q    E  Q       Q.     Q    E  E  E   
----------------------|----------------------|----------------------|-----------------------|
----------------------|----------------------|----------------------|-----------------------|
-------3----2---------|----------------------|----------------------|--3------3----3--3-----|
--3--------------3----|--5------5----5--3----|--1------1----1--1----|--------------------0--|


  Q    E  Q    E  Q         Q    E  Q    E  Q         Q     E   Q     E   Q     
-----------------------||-------------------------|----------------------------|
-----------------------||*------------------------|----------------------------|
-----------------------||*------------------------|----------------------------|
--3----3--3----3--3----||---5----5--5----5--5S----|--12----12--12----12--12----|


  Q    E  Q    E  Q         Q     E   Q     E   Q       Q    E  Q    E  Q      
------------------------|----------------------------|------------------------|
------------------------|----------------------------|------------------------|
------------------------|----------------------------|------------------------|
--5----5--5----5--5S----|--12----12--12----12--12----|--5----5--5----5--5S----|


   Q     E   Q     E   Q       W                   W                   W                 
----------------------------|-------------------|-------------------|-------------------|
----------------------------|-------------------|-------------------|-------------------|
----------------------------|-------------------|-------------------|-------------------|
--12----12--12----12--12----|--3----------------|--5----------------|--L----------------|


  W                     W                   W                   Q    E  Q    E  E  E   
--------------------||-------------------|-------------------|------------------------|
-------------------*||-------------------|-------------------|------------------------|
-------------------*||-------------------|-------------------|------------------------|
--------------------||--3----------------|--5----------------|--3----3--3----3--3--3--|


  Q    E  Q    E  E  E     Q    E  Q    E  E  E     E  E  E  E  E  E  E  E   
------------------------|------------------------|--------------------------|
------------------------|------------------------|--------------------------|
------------------------|------------------------|--------------------------|
--3----3--3----3--3--3--|--5----5--5----5--5--5--|--5--0--5--0--5--0--5--0--|


    Q.     Q    E  Q       Q.     Q    E  Q       Q.     Q    E  E  E     H        E  E  E  E     
|-----------------------|----------------------|-----------------------|------------------------||
|*----------------------|----------------------|-----------------------|-----------------------*||
|*----------------------|----------------------|--3------3----3--3-----|--------------3--2-----*||
|---5------5----5--3----|--1------1----1--1----|--------------------0--|--3--------L--------3---||


  Q    Q    Q    Q       Q.     Q    E  Q       Q.     Q    E  Q       Q.     Q    E  E  E   
----------------------|----------------------|----------------------|-----------------------|
----------------------|----------------------|----------------------|-----------------------|
-------2---------5----|----------------------|----------------------|--3------3----3--3-----|
--3---------3---------|--5------5----5--3----|--1------1----1--1----|--------------------0--|


  E  E  E  E  E  E  E  E       Q    E  E  E  E  E  E     E  E  E  E  E  E  E  E   
--------------------------||--------------------------|--------------------------|
--------------------------||*-------------------------|--------------------------|
--------------------------||*-------7-----5--7--------|-----7-----5--7-----------|
--3--3--3--3--3--3--3--3--||---0-------------------0--|-----------------0--5--7--|


  E  E  E  E  E  E  E  E     E  E   E  E  E  E   Q         E   E  E  E  E   E  E   E   
--------------------------|----------------------------||-----------------------------|
--------------------------|---------------------------*||-----------------------------|
--------------------------|--------10-----9-----------*||-----10--9--7--9--10--7------|
--8-----8-----7--8-----8--|--7------------------10-----||-------------------------10--|


    Q    E  E  E  E  E  E     E  E  E  E  E  E  E  E     E  E  E  E  E  E  E  E   
|--------------------------|--------------------------|--------------------------|
|*-------------------------|--------------------------|--------------------------|
|*-------7-----5--7--------|-----7-----5--7-----------|--------------------------|
|---0-------------------0--|-----------------0--5--7--|--8-----8-----7--8-----8--|


  E  E   E  E  E  E   Q         Q    E  Q    E  E  E     Q    E  Q    E  E  E   
----------------------------||------------------------|------------------------|
---------------------------*||------------------------|------------------------|
--------10-----9-----------*||------------------------|------------------------|
--7------------------10-----||--5----5--5----5--5--3--|--1----1--1----1--1--1--|


  E  E  E  E  E  E  E  E     Q.     Q    E  E  E     Q    E  Q    E  E  E   
--------------------------|-----------------------|------------------------|
--------------------------|-----------------------|------------------------|
--3--3--3--3--3--3--3-----|--------------3--2-----|------------------------|
-----------------------0--|--3------3----------3--|--5----5--5----5--5--3--|


  Q    E  Q    E  E  E     Q    E  Q    E  E  E     Q    Q    Q    Q       Q    E  Q    E  E  E   
------------------------|------------------------|----------------------|------------------------|
------------------------|------------------------|----------------------|------------------------|
------------------------|--3----3--3----3--3-----|----------------------|------------------------|
--1----1--1----1--1--1--|---------------------0--|--3----3----3----3----|--5----5--5----5--5--3--|


  Q    E  E  E  E  E  E     Q    E  Q    E  E  E     Q    Q    Q    Q     
-------------------------|------------------------|----------------------|
--3----3--3--3--3--5--3--|------------------------|----------------------|
-------------------------|--3----3--3----5--3-----|-------3----2---------|
-------------------------|---------------------0--|--3--------------3----|


    Q    E  Q    E  E  E     Q    E  Q    E  E  E     Q    E  Q    E  E  E   
|-------------------------|------------------------|------------------------|
|*------------------------|------------------------|------------------------|
|*------------------------|------------------------|--3----3--3----3--3-----|
|---5----5--5----5--5--3--|--1----1--1----1--1--1--|---------------------0--|


  Q    E  E  E  E  E  E       Q.     Q    E  E  E     Q    E  Q    E  E  E   
--------------------------||-----------------------|------------------------|
-------5--5--5-----------*||-----------------------|------------------------|
-------------------------*||-----------------------|------------------3--5--|
--3-------------0--1--3---||--3------3----0--1--3--|--5----5--5----5--------|


  Q    E  Q    E  E  E     Q    E  Q    E  E  E     Q    Q    E  E  Q       W                  
------------------------|--5----5--5----5--5--5--|-----------------------|-------------------||
--3----3--3----3--3--3--|------------------------|--5----5----5----------|-------------------||
------------------------|------------------------|------------------3----|-------------------||
------------------------|------------------------|---------------3-------|--5----------------||




Duration Legend
---------------
W - whole
H - half
Q - quarter
E - 8th
S - 16th
T - 32nd
X - 64th
. - note dotted
|-n-|  - n-tuplets


Tablature Legend
----------------
L - tied note
x - dead note
g - grace note
(n) - ghost note
> - accentuded note
NH - natural harmonic
AH - artificial harmonic
TH - tapped harmonic
SH - semi harmonic
PH - pitch harmonic
h - hammer on
p - pull off
b - bend
br - bendRelease
pb - preBend
pbr - preBendRelease
brb - bendReleaseBend
\n/ - tremolo bar dip
\n - tremolo bar dive
-/n - tremolo bar Release up
/n\ - tremolo bar inverted dip
/n - tremolo bar return
-\n - tremolo bar Release down
S - shift slide
s - legato slide
/ -  slide into from below or out of upwards
\ -  slide into from above or out of downwards
~ - vibrato
W - wide vibrato
tr - trill
TP - tremolo picking
T - tapping
S - slap
P - pop
< - fade in
^ - brush up
v - brush down
Suggest correction
Give kudos to tab author, rate the tab!
1 2 3 4 5
comments
print report bad tab
guest
You may want to rate the tab now too:
select rating
Wanna post a correction for this tab? Suggest correction