Oops, an error
Loading. Please wait.
14,347 views 240 this week
no commentswrite comment
1 2 3 4 5
x 4
add to favorites
launch autoscroll
font size
0
reset
how to read this tab
guitar tuner
backing track
0:00
0:00
×
Best way to learn
"Otherside"
Autoscroll
slow
fast
+/-
esc
set tempo
stop
[Intro/Chorus]

e|-------------------------------------------------------------|
B|-------------------------------------------------------------|
G|-------------------------------------------------------------|
D|---------------------7---7--9--7--5--------------------------|
A|---7---7---7-----------------------------7-7---7----5---5--5-|
E|-------------------------------------------------------------|


[Verse]

e|--------------------------------15---------------------------|
B|-------13----------12----------------------------------------|
G|-------------------------------------------------------------|
D|-------------------------------------------------------------|
A|-------------------------------------------------------------|
E|-------------------------------------------------------------|


[Strum]

e|---------3-------------5-------------------------------------|
B|---------1-------------5-------------------------------------|
G|---------2-------------6-------------------------------------|
D|---------2-------------7-------------------------------------|
A|-----------------------7-------------------------------------|
E|-----------------------5-------------------------------------|


[Intro/Chorus Var 1]

e|-----------------------------------------------------------------------------------------|
B|-----------------------------------------------------------------------------------------|
G|-----------------------------------------------------------------------------------------|
D|-----------------------7---7---14--14--14---14---14--------------------------------------|
A|----7---7---7-------------------------------------------------14---14---14-----14-----14-|
E|-----------------------------------------------------------------------------------------|


[Intro/Chorus Var 2]

e|-------------------------------------------------------------------------------------------------|
B|-------------------------------------------------------------------------------------------------|
G|-----------------------------------------------------------------------------14---14---14-----14-|
D|-----------------------7---7---7\14--14--14---14---14---14---------------------------------------|
A|----7---7---7--7---------------------------------------------------------------------------------|
E|-------------------------------------------------------------------------------------------------|


[Intro/Chorus Var 3]

e|-----------------------------------------------------------------------------------------------------------|
B|--------------------10--10-----12-\10------8-\10--\-8------------------------------------------------------|
G|---9--9--9--------------------------------------------------------------9----9-----9--------7------7-----7-|
D|---------------------7---7--------9-\--7-------5-\-7---\-5-------------------------------------------------|
A|---7--7--7--------------------------------------------------------------7----7-----7--------5------5-----5-|
E|-----------------------------------------------------------------------------------------------------------|


[Intro/Chorus Var 4]

e|---------------------------------------------------------------|
B|---------------------------8-------13----13-------13-----------|
G|-------9------9------------------------------------------------|
D|---------------------------5-------10----10-------10-----------|
A|-------7------7------------------------------------------------|
E|---------------------------------------------------------------|


[Bridge]

e|--------------7--7--7-----12--12--12---------7--7--7---|
B|-------------------------------------------------------|
G|-9--9--9-----------------------------------------------|
D|-------------------------------------------------------|
A|-------------------------------------------------------|
E|-------------------------------------------------------|

e|-12--12--12---7--7--7-----12--12--12--------7--7--7----|
B|-------------------------------------------------------|
G|-------------------------------------------------------|
D|-------------------------------------------------------|
A|-------------------------------------------------------|
E|-------------------------------------------------------|

[Short Solo]

e|-3-\-5---5---5--5----5-\-12--(-12---12---12-----14---12---12----12----|
B|----------------------------------------------------------------------|
G|----------------------------------------------------------------------|
D|----------------------------------------------------------------------|
A|----------------------------------------------------------------------|
E|----------------------------------------------------------------------|

(in bracers: repeat many tines)

e|-14----12-----14-----12------14----12-----14-----12-)--------|
B|-------------------------------------------------------------|
G|-------------------------------------------------------------|
D|-------------------------------------------------------------|
A|-------------------------------------------------------------|
E|-------------------------------------------------------------|


[End]

e|------------------------|
B|------------------------|
G|------------------------|
D|------------------------|
A|--------------12--------|
E|------------------------|


Song Order:

[Intro/Chorus]                   3X
[Intro/Chorus Var 1]             1X
[Verse]                          3X
[Strum]                          1X
[Verse]                          3X
[Strum]                          3X
[Intro/Chorus]                   2X
[Intro/Chorus Var 2]             1X
[Verse]                          3X
[Strum]                          1X
[Verse]                          3X
[Strum]                          3X
[Intro/Chorus  Var  3]           2X
[Intro/Chorus  Var  4]           1X
[Bridge]                         1X
[Short Solo]



************************************

| \  Slide down

************************************
Suggest correction
comments
print report bad tab
guest
You may want to rate the tab now too:
select rating
Wanna post a correction for this tab? Suggest correction