Oops, an error
Loading. Please wait.

Otherside Tab

81,007 views 243 this week
14 commentsread comments
1 2 3 4 5
x 40
add to favorites
launch autoscroll
font size
0
reset
how to read this tab
guitar tuner
Autoscroll
slow
fast
+/-
esc
set tempo
stop
Help us to improve Ultimate-Guitar.com Take our survey!
×
[Intro]

  A5              F               C         G5
e|---------------|---------------|---------|-----------|
B|---------------|---------------|---------|-----------|
G|---------------|-------4-------|---------|-----------|
D|---------------|-7--7-----7--5-|---------|-----------|
A|-7---7----7----|---------------|-7-------|-5--5--5---|
E|---------------|---------------|---------|-----------|


[Chorus 1] 

  A5              F               C         G5
e|---------------|---------------|---------|-----------|
B|---------------|---------------|---------|-----------|
G|---------------|-------4-------|---------|-----------|
D|---------------|-7--7-----7--5-|---------|-----------|  
A|-7---7----7----|---------------|-7--7--7-|-5--5----5-|
E|---------------|---------------|---------|-----------|(x2)
  How long?__ How long____ will i   slide?________
  Sep-ar-ate  my  side_______________,- i don't


[Chorus 2]

  A5          F             C            G
e|-----------|-------------|------------|---------------|
B|-----------|-------------|------------|---------------|
G|-----------|-------------|------------|---------------|
D|-----------|-7--7--7-----|14---14---14|--9--9----9----| 
A|-7--7--7---|-------------|------------|---------------|
E|-----------|-------------|------------|---------------|
   Don't believe it's best______________________
   slit my throat. it's all__ I____ ev - er      

  Am                          Em
e|-----------8---------------|-----------------15-------|
B|---------------------------|-----------12-------------|
G|---------------------------|--------------------------|
D|---------------------------|--------------------------| 
A|---------------------------|--------------------------|
E|--5-----5--5------5--5-----|/12----12--12---------12--|
1. I heard your voice through  a pho - to  -  graph;___
   3. Pour my life in - to a   pa - per cup; __________
                
  Am                          Em
e|-----------8---------------|-----------------15-------|
B|---------------------------|-----------12-------------|
G|---------------------------|--------------------------|
D|---------------------------|--------------------------| 
A|---------------------------|--------------------------|
E|--5-----5--5------5--5-----|/12----12--12---------12--|
1. I thought it up it brought  up the_____ past._____
 3.the ash - tray's full and   i'm spi - lin my guts.___
 
  Am                          Em
e|-----------8-----------------|-------------------15-------|
B|-----------------------------|-------------12-------------|
G|-----------------------------|----------------------------|
D|-----------------------------|----------------------------| 
A|-----------------------------|----------------------------|
E|--5-----5--5------5--5-------|/12----12----12---------12--|
  1. Once you know you can    ne - ver go back__|I've got to
  3. she wants to know   am i   still a  slut___|
                          
  G                           A
e|--3------------------------|--5-----------------------|
B|--3------------------------|--5-----------------------|
G|--4------------------------|--6-----------------------|
D|--5------------------------|--7-----------------------| 
A|--5------------------------|--7-----------------------|
E|--3------------------------|--5-----------------------|
  take_   it   on___   the     oth - er      side___


[Verse]

Am                          Em
e|-----------8---------------|-----------------15-------|
B|---------------------------|-----------12-------------|
G|---------------------------|--------------------------|
D|---------------------------|--------------------------|
A|---------------------------|--------------------------|
E|--5-----5--5------5--5-----|/12----12--12---------12--|(x2)
 2. Cen -tu -ries are what it    meant_____  to   me;___
 4. Scarlet starlet and she's   in       my       bed,__

Am                          Em
e|-----------8---------------|-----------------15-------|
B|---------------------------|-----------12-------------|
G|---------------------------|--------------------------|
D|---------------------------|--------------------------| 
A|---------------------------|--------------------------|
E|--5-----5--5------5--5-----|/12----12--12---------12--|
  a cem - e - tary   where I   mar - ry the sea.________
  a can - did - ate, a for my  soul mate     bled.______

Am                          Em
e|-----------8-----------------|-------------------15-------|
B|-----------------------------|-------------12-------------|
G|-----------------------------|----------------------------|
D|-----------------------------|----------------------------| 
A|-----------------------------|----------------------------|
E|--5-----5--5------5--5-------|/12----12--12-----------12--|
 strang - er things could never  change my mind____|I've got to
 push the trig - ger and,        pull__ the thread_|

  G                           A
e|--3------------------------|--5-----------------------|
B|--3------------------------|--5-----------------------|
G|--4------------------------|--6-----------------------|
D|--5------------------------|--7-----------------------| 
A|--5------------------------|--7-----------------------|
E|--3------------------------|--5-----------------------|(x2)
 take    it    on____   the    oth - er   -   side.__

    G                           
e|--3------------------------|--------------------------|
B|--3------------------------|--------------------------|
G|--4-------------4----------|--------------------------|
D|--5--------------------5---|--------------------------| 
A|--5------------------------|--------------------------|
E|--3------------------------|--------------------------|
  Take     it        on._________________________
 (Take     it        on.________________)

  A                           
e|--5------------------------|--------------------------|
B|--5------------------------|--------------------------|
G|--6------------------------|--------------------------|
D|--7------------------------|--------------------------| 
A|--7------------------------|--------------------------|
E|--5------------------------|--------------------------|
  take________ it     on.___

  Am                          F            
e|---------------------------|------------------------------|
B|---------------------------|------------------------------|
G|---9------X--9---------9---|-14---14-----/16---14---12----|
D|---X------X--X---------X---|--X----X-------X----X----X----| 
A|---7------X--7---------7---|-12---14-----/14---12---10----|
E|---------------------------|------------------------------|
  How   long.___    how__      long_____________ will  i 


  C                           G5      
e|---------------------------|------------------------------|
B|---------------------------|------------------------------|
G|---9---------9---------9---|--7------------7----------7---|
D|---X---------X---------X---|--X------------X----------X---| 
A|---7---------7---------7---|--5------------5----------5---|
E|---------------------------|------------------------------|
  slide,                      sep - a  -   rate_    my__ 


 Am                          F            
e|---------------------------|------------------------------|
B|---------------------------|------------------------------|
G|---9---------9---------9/--|-14---14-----/16---14---12----|
D|---X---------X---------X---|--X----X-------X----X----X----| 
A|---7------7--7------7--7/--|-12---14-----/14---12---10----|
E|---------------------------|------------------------------|
  side?_____________________                         I don't,___

  C                           G5           
e|---------------------------|------------------------------|
B|---------------------------|------------------------------|
G|---9---------9---------9---|----7--------7----------7-----|
D|---X---------X---------X---|----X--------X----------X-----| 
A|---7---------7------7--7---|----5--------5----------5-----|
E|---------------------------|------------------------------|
                         I     don't_ be  -  lieve_ it's 

  Am                           F5             
e|----------------------------|-----------------------------|
B|----------------------------|-----------------------------|
G|---9---9-----9----X----12/--|-\5--------5-------5---4-----|
D|---X---X-----X----X-----X---|--X--------X-------X---X-----| 
A|---7---7-----7----X----10/--|-\3--------3-------3---2-----|
E|----------------------------|-----------------------------|    
  bad;_______________________________                     a

  C5                          G5            
e|---------------------------|------------------------------|
B|---------------------------|------------------------------|
G|---5---------5---------5---|------------------------------|
D|---X---------X---------X---|--5--------------5------------| 
A|---3------3--3---------3---|--X--------------X------------|
E|---------------------------|--3--------------3------------|
 sli-tin my throat it's all_  I______ ev    -     er...__

         w/ dist.
  E5                                     
e|--0------0----------0------|
B|--0------0----------0------|
G|---------------------------|
D|---------------------------|
A|---------------------------|
E|---------------------------|

  Cmaj7                       E5              
e|-----------------0-------0---|---12---------12---------12-----|
B|----12----------12------12---|---------------0----------0-----|
G|-----------------------------|--------------------------------|
D|-----------------------------|--------------------------------| 
A|-----------------------------|--------------------------------|
E|-----------------------------|--------------------------------|

  Cmaj7             
e|--------0---------------0------------|--0-----------------|
B|-------12--------------12------------|-12-----------------|
G|-------------------------------------|--------------------|
D|-------------------------------------|--------------------| 
A|-------------------------------------|--------------------|
E|-------------------------------------|--------------------|
   
  E5
e|-------12--------------12------------|--------12----------|
B|--------0---------------0------------|---------0----------|
G|-------------------------------------|--------------------|
D|-------------------------------------|--------------------| 
A|-------------------------------------|--------------------|
E|-------------------------------------|--------------------|
  turn        me     on,    take   me     for a hard__ ride;  

  Cmaj7
e|--------0---------------0---|-----0------------0----------|
B|-------12--------------12---|----12-----------12----------|
G|----------------------------|-----------------------------|
D|----------------------------|-----------------------------| 
A|----------------------------|-----------------------------|
E|----------------------------|-----------------------------|
    burn    me  out,    leave    me on the oth - er side.__

  E5
e|-------12--------------12---|---12------------12----------|
B|--------0---------------0---|----0-------------0----------|
G|----------------------------|-----------------------------|
D|----------------------------|-----------------------------| 
A|----------------------------|-----------------------------|
E|----------------------------|-----------------------------|
   I yell and tell it that it's not my friend._  i  tear  it

 Cmaj7
e|--------0---------------0---|-----0------------0----------|
B|-------12--------------12---|----12-----------12\10-------|
G|----------------------------|-----------------------------|
D|----------------------------|-----------------------------| 
A|----------------------------|-----------------------------|
E|----------------------------|-----------------------------|
 down.I tear it down and then   it's born a  -   gain.______


[Guitar Solo]

 Am                            F
e|--0-----0-------0---0-------|---0---0---0------0--0--0--0-|
B|-10----10------10--10-/-17--|--17--17--17-----17-17-17-17-|
G|----------------------------|-----------------------------|
D|----------------------------|-----------------------------| 
A|----------------------------|-----------------------------|
E|----------------------------|-----------------------------|

  C                             G
e|--0--0--0--0-------0--0--0--|-----0--0--0--0--0--0--0--0--|
B|-20-17-17-17------17-17-17--|----20-17-17-20-17----20-17--|
G|----------------------------|-----------------------------|
D|----------------------------|-----------------------------| 
A|----------------------------|-----------------------------|
E|----------------------------|-----------------------------|

[Chorus]
(the same thing)

 
************************************

| /  Slide up
| \  Slide down 

************************************
Suggest correction
comments
print report bad tab
14 comments total. Showing first comments.
0 reply
Guitar_mOnKeY 0 Dec 24, 2002 12:00 AM

personally, i think you're all wrong, but my teacher is was kinda crazy, so what do i know?

+1 reply
no1guitarpunk 0 Jan 10, 2003 12:00 AM

hey i was about to go crazy man cuz i have the book, and everyone was wrong and i was like "these guys are dumb" but then i realized yours is straight from the book, good tab man

+1 reply
cyco_bob56 62 Mar 03, 2003 12:00 AM

this is from the book. good that you put it up man.

guest
You may want to rate the tab now too:
select rating
Wanna post a correction for this tab? Suggest correction