Oops, an error
Loading. Please wait.
We have an official Otherside tab made by UG professional guitarists. Check out the tab »
×

Otherside bass

4,776 views 3 this week
1 commentread comment
1 2 3 4 5
2 more votes to show rating
add to favorites
×
Save as Personal and add changes to this tab that will be seen only by you. Learn more ›
×
You can save this tab as Personal to edit and correct it or add notes. All changes will be seen only by you. Learn more »
launch autoscroll
font size
0
reset
guitar tuner
backing track
0:00
0:00
edit
Autoscroll
slow
fast
+/-
esc
set tempo
stop
Chours:

G|-------------------------------------------------------|
D|-------------------------------------------------------|
A|-0--0--0-------------------3--3--3-3-------------------|
E|----------3\--1--1--1-1------------0--3--3--3----------|      (x3)
Verse:

G|------------------------------------------------|
D|-0--0--0--0--0--0--0--/--7--7--7--7--7--7--7----|
A|------------------------------------------------|
E|------------------------------------------------|       (x3)

G|------------------------------------------------|
D|------------------------------------------------|
A|------------------------------------------------|
E|---3----3--5------------------------------------|       (x1)

G|------------------------------------------------|
D|-0--0--0--0--0--0--0--/--7--7--7--7--7--7--7----|
A|------------------------------------------------|
E|------------------------------------------------|       (x3)

G|-----------------------------------------------------------------------|
D|-----------------------------------------------------------------------|
A|-----------------------------------------------------------------------|
E|---3----3--5----5--3----3--5----5---3-3-3-3-3-3-3-3--5-5-5-5-5-5-5-5---|  (x1)

Chours:
G|-------------------------------------------------------|
D|-------------------------------------------------------|
A|-0--0--0-------------------3--3--3-3-------------------|
E|----------3\--1--1--1-1------------0--3--3--3----------|      (x3)

Verse:
G|------------------------------------------------|
D|-0--0--0--0--0--0--0--/--7--7--7--7--7--7--7----|
A|------------------------------------------------|
E|------------------------------------------------|       (x3)

G|------------------------------------------------|
D|------------------------------------------------|
A|------------------------------------------------|
E|---3----3--5------------------------------------|       (x1)

G|------------------------------------------------|
D|-0--0--0--0--0--0--0--/--7--7--7--7--7--7--7----|
A|------------------------------------------------|
E|------------------------------------------------|       (x3)

G|----------------------------------------------------------------------|
D|----------------------------------------------------------------------|
A|----------------------------------------------------------------------|
E|---3----3--5----5--3----3--5----5---3-3-3-3-3-3-3-3--5-5-5-5-5-5-5-5--| (x1)

Chours:
G|-------------------------------------------------------|
D|-------------------------------------------------------|
A|-0--0--0-------------------3--3--3-3-------------------|
E|----------3\--1--1--1-1------------0--3--3--3----------|      (x3)

Brigde:
G|-----------------------------------------------------------------------|
D|----(2---0--2)-----(2---0--2)-------------------------------(5--4---0)-|
A|-----7---5--7-------7---5--7----(0--2--3---3---2--3---3)-(5)10--9------|
E|-0--------------0-------------0--5--7--8---8---7--8---8---10-------10--|

G|---------------------------------------------------------------------------|
D|----(2---0--2)-----(2---0--2)-----------------------------(5-4-2-4--5-2----|
A|-----7---5--7-------7---5--7-----(0--2--3---3---2--3---3)-10-9-7-9-10-7(5)-|
E|-0-0------------0-------------0-0-5--7--8---8---7--8---8---------------10--|

G|-----------------------------------------------------------------------|
D|----(2---0--2)-----(2---0--2)-------------------------------(5--4---0)-|
A|-----7---5--7-------7---5--7----(0--2--3---3---2--3---3)-(5)10--9------|
E|-0-0---0--------0-------------0--5--7--8---8---7--8---8---10-------10--|

G|------------------------------------------------------------------------|
D|----(2---0--2)---(2--2---0--2)--------------------------------(5--4--0)-|
A|-----7---5--7-----7--7---5--7----(0--2--3---3---2--3---3)--(5)10--9-----|
E|-0--------------0------0-------0--5--7--8---8---7--8---8---10-------10--|

Chours:
G|-------------------------------------------------------|
D|-------------------------------------------------------|
A|-0--0--0-------------------3--3--3-3-----------0-------|
E|----------3\--1--1--1-1------------0--3--3--3----------|      (x3)

and then is the Song Over xD

            
            
Suggest correction
Creating personal tab
Creating personal tab
You can edit any tab online and save it as your Personal.

You can edit, replace or remove any tab part or add personal notes – all changes will be seen only by you.

Personal tabs can be accessed anytime from any device, even offline.
Learn more »
Give kudos to tab author, rate the tab!
1 2 3 4 5
comments
print report bad tab
1 comment total.
+1 reply
MORG4NFREEM4N 10 May 18, 2011 03:24 AM

the bridge is 99% correct but the rest of the song is completely wrong (i have the rhcp greatest hits bass tab so i know this) also this is know way a novice bass line there are several changes a novice whos never played bass before couldn't play this song with ease.

guest
You may want to rate the tab now too:
select rating
Wanna post a correction for this tab? Suggest correction