Oops, an error
Loading. Please wait.

Otherside Tab

version 7
12,761 views 6 this week
1 commentread comment
1 2 3 4 5
x 4
add to favorites
launch autoscroll
font size
0
reset
how to read this tab
guitar tuner
backing track
0:00
0:00
×
Best way to learn
"Otherside"
Autoscroll
slow
fast
+/-
esc
set tempo
stop
Author
http://www.youtube.com/watch?v=ytpWf7irnCU

e|------0--0---------|--------------------|----------------|-0-----------------|
B|---------1-------3-|-1-----3p1----1-1---|-1-----1--------|------3---1---0----|
G|---------2---------|-2-----2------4-2-0-|-----0------0---|--------0-------0--|
D|---2----------2----|----3------3--------|---2------2---2-|----0--------------|
A|-0----------0------|--------------------|-3--------------|------------2------|
E|-------------------|--------------------|----------------|-3-----------------|

e|-----------------|------------------|-----0-------|-0-----------------|
B|-----0-----0---0-|-------1----0-----|-----1-------|------3---1---0----|
G|-2-----2-----2---|-2---2---2----2-0-|-----0-0---0-|--------0-------0--|
D|---2-------------|---3--------------|-2-------2---|----0--------------|
A|-0-------0-------|------------------|-3-3---------|------------2------|
E|-------------3---|-1----------------|-------------|-3-----------------|

e|------------------|-----------------|---------------|-0------------------|
B|-1---3-1---3--1-3-|-1-----1---0-----|-1---1---1---1-|-0-----3---1---0----|
G|---2--------------|-----2---2---2-0-|-0---0---0---0-|-0-------0-------0--|
D|------------------|---3-------------|---2-------2---|--------------------|
A|-0-------0--------|-----------------|-3-----3-------|-------------2------|
E|--------------3---|-1---------------|---------------|---3-3--------------|

e|-----------------|------------------|---------------|------------------|
B|-----1-1-1---1-1-|-1-0----0-----0---|-----1-1-1---1-|-1-3---0-----0----|
G|-----2-2-2---2-2-|--------0---0---0-|-----2-2-2---2-|-----------0---0--|
D|---2-------2-----|----------2-------|---2-------2---|---------2--------|
A|-0-------0-------|------2-----------|-0-------0-----|-----2------------|
E|-----------------|-0----------------|---------------|-0----------------|

e|-----------------|---------------|-------------|-----------------|
B|-----1-1-1---1-1-|-1-0---0---000-|-0---0-0---0-|-0---------------|
G|-----2-2-2---2-2-|-------0---000-|-0---0-0---0-|---2---2----2----|
D|---2-------2-----|---------2-----|---0---------|-----2----2---2--|
A|-0-------0-------|-----2---------|---------2---|-0---------------|
E|-----------------|-0-------------|-3-----------|-----------------|

e|-------------|---------------|--------------|----------------|
B|-0---0-0---0-|-0-------------|-0---00-------|-------0--------|
G|-0---0-0---0-|---2---2---2---|-0---00---0---|-----0-----0----|
D|---0---------|-----2---2---2-|---0----0---0-|---0-----0---0--|
A|---------2---|-0-------------|--------------|----------------|
E|-3-----------|---------------|-3------------|-3--------------|

e|---------------|--------------|
B|-0-------------|---------rrr--|
G|---2---2---2---|-----2---aaa--|
D|-----2---2---2-|---2---2-kkk--|
A|-0-------------|-0-------eee--|
E|---------------|--------------|


************************************

| P pull off

************************************
Suggest correction
comments
print report bad tab
1 comment total.
-1 reply
geetarguy1313 10 Sep 24, 2009 05:11 PM

sorry, its just not as good as some of the things ive seen. but u put alot of effort into it. thanx for that:3 its about time someone does.

guest
You may want to rate the tab now too:
select rating
Wanna post a correction for this tab? Suggest correction