Oops, an error
Loading. Please wait.

Otherside Tab

55,127 views 6 this week
3 commentsread comments
1 2 3 4 5
worth learning
x 12
add to favorites
launch autoscroll
font size
0
reset
how to read this tab
guitar tuner
Tab Pro tools
  • play this tab
  • loop segment
  • change instrument
  • show fretboard
  • metronome
×
Best way to learn
"Otherside"
Autoscroll
slow
fast
+/-
esc
set tempo
stop
Artist- Red Hot Chili Peppers
Album- Californication
Song- Otherside

The whole song is just a repeating of this riff.

Key:
(7)=notes played after the first time through the riff.

E:|-------------------------------------|
B:|-------------------------------------|
G:|-------------------------------------|
D:|--------7-7---10-9-7-----------------|
A:|--7-7-7--------------7(7)(7)--5-5-5--|
E:|-------------------------------------|

_______________________________________________________

Version #2
_______________________________________________________


Red Hot Chili Peppers - Otherside
 
Intro
   Am          F             C             G
e|---------------------------------------------------|
B|---------------------------------------------------|
G|-------------2---2--4-2-0--------------------------|
D|-2---2---2-----------------2-------------0---0--0--|
A|-0------0-0----------------3-----------------------|
E|-------------1---1-----------------------3---3--3--|
 
Chorus
   Am          F             C             G          2x
e|---------------------------------------------------|
B|---------------------------------------------------|
G|-------------2---2--4-2-0--------------------------|
D|-2---2---2-----------------2---2--2-2-2--0---0--0--|
A|-0------0-0----------------3---3--3-3-3------------|
E|-------------1---1-----------------------3---3--3--|
 
   Am          F             C             G           1:st chorus
e|---------------------------------------------------| ending
B|---------------------------5---5--5----------------|
G|-------------2---2--2--------------------4---4--4--|
D|-2---2--2------------------------------------------|
A|-0-----0-0-----------------3---3--3----------------|
E|-------------1---1--1--------------------3---3--3--|
 
   Am          F            C             G          2:nd chorus
e|-----------------------------------------3-3-3-3--| ending
B|---------------------------5---5--5---------------|
G|-------------2---2--2-----------------------------| 
D|-2---2--2-----------------------------------------|
A|-0-----0-0-----------------3---3--3---------------|
E|-------------1---1--1--------------------3-3-3-3--|
 
   E                                                         2x
e|----------------------------------------------------------|
B|----------------------------------------------------------|
G|-9---9---9------9---9---9------12---9---9------9---9---9--|
D|-9---9---9---------------------12---9---9-----------------|
A|-7---7---7--------------------------7---7-----------------|
E|----------------------------------------------------------|
  Turn me on take me for a hard ride....
 
   Am             E
e|-----------------------------------------------------------------|
B|-----------------------------------------------------------------|
G|----------------9---9--9-9-9-12-9---9--9-9-9-12-9---12-9---12-9--|
D|-7---7--7-7-7----------------------------------------------------|
A|-----------------------------------------------------------------|
E|-----------------------------------------------------------------|
 
Chorus: 
How long how long will I slide 
Separate my side I don-t 
I don-t believe it-s bad 
Slit my throat 
It-s all I ever 
 
Verse:
Am                               E
I heard your voice through a photograph 
Am                              E
I thought it up it brought up the past 
Am                           E
Once you know you can never go back 
             G                Am
I-ve got to take it on the otherside 
Am                           E
Centuries are what it meant to me 
Am                         E 
A cemetery where I marry the sea 
Am                                  E
Stranger things could never change my mind 
             G                Am
I-ve got to take it on the otherside 
G                Am
Take it on the otherside 
G
Take it on 
Am
Take it on 
 
Chorus 
 
Pour my life into a paper cup 
The ashtray-s full and I-m spillin- my guts 
She wants to know am I still a slut 
I-ve got to take it on the otherside 
 
Scarlet starlet and she-s in my bed 
A candidate for my soul mate bled 
Push the trigger and pull the thread 
I-ve got to take it on the otherside 
Take it on the otherside 
Take it on 
Take it on 
 
Chorus 
 
Turn me on take me for a hard ride 
Burn me out leave me on the otherside 
I yell and tell it that 
It-s not my friend 
I tear it down I tear it down 
And then it-s born again 
 
Chorus 
 
How long I don-t believe it-s bad 
Slit my throat 
It-s all I ever
 
 
 
any suggestions or corrections are welcomed
landgard@hotmail.com    
comments
print report bad tab
3 comments total.
0 reply
soadfreak8488 wrote on September 1 2002, 12:00 am

The Intro is like this

e|
b|
g|
d| 7 7 9 7 5
a| 7 7 7 7 5 5 5
E|

0 reply
soadfreak8488 wrote on September 1 2002, 12:00 am

The intro is like this:

e|
b|
g|
d|-------------7-7-9-7-5-
a|----7--7--7------------7--5-5-5-
E|

0 reply
zgamez176 wrote on April 21 2008, 02:40 pm

There is definitely a note missing at the end.

e|
b|
g|
d|-------------7-7-9-7-5
a|----7--7--7------------7--5-5-5-(-7-)note thats missing
E|

I want to post or [tab]
guest
You may want to rate the tab now too:
select rating
Please do not post tabs as comments. Select "correction" instead!