Oops, an error
Loading. Please wait.
We have an official Otherside tab made by UG professional guitarists. Check out the tab »
×
46,754 views 231 this week
1 commentread comment
1 2 3 4 5
x 12
add to favorites
×
Save as Personal and add changes to this tab that will be seen only by you. Learn more ›
×
You can save this tab as Personal to edit and correct it or add notes. All changes will be seen only by you. Learn more »
launch autoscroll
font size
0
reset
how to read this tab
guitar tuner
backing track
0:00
0:00
edit
Autoscroll
slow
fast
+/-
esc
set tempo
stop
Author
----------------------------------------------------------------------
Acoustic cover of
Red Hot Chili Peppers - Otherside

Tabbed by egidio, February 2011

Tuning : Standard


Hi. This is my acoustic cover of Otherside. It is inspired by this guy
on Youtube : http://www.youtube.com/watch?v=h0PpKYg47n4 .
I liked his version, but i did not like the tabs he has for download.
So i came up with an own version, and made a tab for it.
It is pretty easy to play, just place your fingers like playing the
chords Am, F, C and G and pick (Am, Em and G for the verse).

Have fun.


[Intro]

  1 2 3 4  1 2 3 4  1 2 3 4  1 2 3 4
e|--------|---------|--------|--------|
B|--------|-----0---|---1----|--------|
G|--------|2--2--2-0|--0--0--|--------|
D|2--2--2-|3--------|-2----2-|0-----0-|
A|0-------|3--------|3------3|---3----|
E|--------|---------|--------|3-------|

  1 2 3 4  1 2 3 4  1 2 3 4  1 2 3 4
e|--------|---------|--------|--------|
B|--------|-----0---|---1----|--------|
G|--------|2--2--2-0|--0--0--|--------|
D|2--2--2-|3--------|-2----2-|0-------|
A|0-------|3--------|3------3|---3--2-|
E|--------|---------|--------|3-------|


[Chorus]

  1 2 3 4  1 2 3 4  1 2 3 4  1 2 3 4
e|--0-0----|---------|--------|0-------|
B|--1-1--3-|1-3-1--1-|1--1--1-|--3-1-0-|
G|--2-2--2-|2--------|2--2--2-|--------|
D|---------|---------|--------|--------|
A|0-----0--|---------|3-3--3--|--------|
E|---------|1-----1--|--------|33-3-3-3|

  1 2 3 4  1 2 3 4  1 2 3 4  1 2 3 4
e|--------|---------|--------|0-------|
B|1----3--|-----0---|---1----|--3-1-0-|
G|2--2----|---2--2-0|--0--0--|--------|
D|--2---2-|--3------|-2----2-|--------|
A|0-------|-3-------|3-------|--------|
E|--------|1--------|--------|33-3-3-3|

  1 2 3 4  1 2 3 4  1 2 3 4  1 2 3 4
e|--------|--------|--------|0-------|
B|1--1--3-|---1----|111-1-1-|--3-1-0-|
G|2--2--2-|---2----|222-2-2-|--------|
D|--------|--3-----|--------|--------|
A|0-0--0--|-3------|3--3-3--|--------|
E|--------|1-------|--------|33-3-3-3|


[Verse]

  1 2 3 4  1 2 3 4  1 2 3 4  1 2 3 4
e|--------|--------|--------|--------|
B|--11--1-|---0---0|--11--1-|0-30----|
G|--22--2-|--0---0-|--22--2-|-----0-0|
D|-2---2--|-2---2--|-2---2--|22----2-|
A|0-------|--------|0-------|--------|
E|--------|0-------|--------|0-------|

  1 2 3 4  1 2 3 4  1 2 3 4  1 2 3 4
e|--------|--------|--------|--------|
B|--11--1-|---0-000|0-00--1-|--------|
G|--22--2-|--0-----|0-00----|--22----|
D|-2---2--|-2------|--------|-2------|
A|0-------|--------|--------|0--2----|
E|--------|0-------|3-------|--------|


[Bridge]

  1 2 3 4
e|--------|
B|--------|
G|2-2-2-2-|
D|--------|
A|-0-0-0-0|
E|--------|


[Outro]

  1 2 3 4  1 2 3 4  1 2 3 4  1 2 3 4
e|--------|--------|--------|0-------|
B|----0---|-----0--|---1----|--3-1-0-|
G|2--2-2-2|---2--20|--0--0--|--------|
D|--2---2-|--3-----|-2----2-|--------|
A|0-------|-3------|3-------|--------|
E|--------|1-------|--------|33-3-3-3|

  1 2 3 4  1 2 3 4  1 2 3 4  1 2 3 4
e|--------|--------|--------|0-------|
B|1--1--3-|---1----|111-1-1-|--3-1-0-|
G|2--2--2-|---2----|222-2-2-|--------|
D|--------|--3-----|--------|--------|
A|0-0--0--|-3------|3--3-3--|--------|
E|--------|1-------|--------|33-3-3-3|

  1 2 3 4  
e|0-------|
B|1-------|
G|2-------|
D|2-------|
A|0-------|
E|--------|



You could play

[Intro]
[Chorus]
[Verse]
[Verse]
[Bridge]
[Chorus]
[Verse]
[Verse]
[Bridge]

            
            
Suggest correction
Creating personal tab
Creating personal tab
You can edit any tab online and save it as your Personal.

You can edit, replace or remove any tab part or add personal notes – all changes will be seen only by you.

Personal tabs can be accessed anytime from any device, even offline.
Learn more »
comments
print report bad tab
1 comment total.
0 reply
zuraROX 10 Jun 23, 2017 05:53 AM

thank you, for sharing.

guest
You may want to rate the tab now too:
select rating
Wanna post a correction for this tab? Suggest correction