Oops, an error
Loading. Please wait.
6,853 views 153 this week
1 commentread comment
1 2 3 4 5
x 4
add to favorites
launch autoscroll
font size
0
reset
how to read this tab
guitar tuner
backing track
0:00
0:00
Autoscroll
slow
fast
+/-
esc
set tempo
stop
Author
Difficulty
intermediate
So I tried to make the song playable without a bass. It's alright as it
is, but some parts need 2 guitars (mainly for the solo). I'll post most of what I know about
the song though.


[Intro/Chorus]

e|------------------------------------------------|
B|------------------------------------------------|
G|-------------2--2---4-2-0-----------------------|
D|--2---2--2----------------2-(Let it ring)-0-0-0-|
A|--0---0--0----------------3-(Let it ring)-------|
E|-----------3-1--1-------------------------3-3-3-|


[Verse]

e|------------------------15--------|
B|-13------------------12-----------|
G|----------------------------------|
D|----------------------------------|
A|-0---0-0-0--0-0-------------------|
E|-----------------12--12-12--12-12-|


[Verse Ending Chords]

e|-3-|     e|-5-|
B|-3-|     B|-5-|
G|-4-|     G|-6-|
D|-5-|     D|-7-|
A|-5-|     A|-7-|
E|-3-|     E|-5-|

This chorus is a bit different.
I couldn't get the bass into it without including the songs gradual
increase that it has.


[Chorus 2]

e|-------5-5-5-7-5-3------------|
B|-5-5-5-------------5---3-3-3--|
G|-------2-2-2-4-2-0------------|
D|-2-2-2-------------2---0-0-0--|
A|------------------------------|
E|------------------------------|


[Bridge]

e|-12-12-12-----------|
B|----------12-12-12--|
G|--------------------|
D|--------------------|
A|--------------------|
E|--------------------|


[Solo]

e|----------------------12---12--12--12-12-12--15p12-12-12--|
B|-10---10--10--10-10-10------------------------------------|
G|----------------------------------------------------------|
D|----------------------------------------------------------|
A|----------------------------------------------------------|
E|----------------------------------------------------------|

e|-12-12-12-15p12-12-15p12-12-15p12-------------|
B|----------------------------------------------|
G|----------------------------------------------|
D|----------------------------------------------|
A|----------------------------------------------|
E|----------------------------------------------|


[Solo Riff]

This is how it goes until the end of the song.

e|-----------------------------------------------------------------|
B|-----------------------------------------------------------------|
G|-----------------------------------------------------------------|
D|--7--10-7--7--10---3--7-3--3-7---10--14-10--10-14---5--9-5--5-9--|
A|--7--7--7--7--7----3--3-3--3-3---10--10-10--10-10---5--5-5--5-5--|
E|-----------------------------------------------------------------|


[Ending Chord]

e|--5-|
B|--5-|
G|--5-|
D|--7-|
A|--7-|
E|--5-|

For the solo, it continues on into the outro
of the song.  Enjoy :D (Side note: I dented my guitar when tabbing this song out!)



************************************

| p  Pull-off

************************************
Suggest correction
comments
print report bad tab
1 comment total.
0 reply
52b421a6 129 Dec 02, 2016 05:31 AM

Cheers for the bass in the intro, nice to have a tab for it :D

guest
You may want to rate the tab now too:
select rating
Wanna post a correction for this tab? Suggest correction