Oops, an error
Loading. Please wait.

Otherside Tab

32,737 views 69 this week
2 commentsread comments
1 2 3 4 5
excellent!
x 11
add to favorites
launch autoscroll
font size
0
reset
how to read this tab
guitar tuner
Autoscroll
slow
fast
+/-
esc
set tempo
stop
Help us to improve Ultimate-Guitar.com Take our survey!
×
Contributor
Difficulty
intermediate
  otherside by the red hot chili peppers
 /=slide

E|--------------------------| E|---------------------------------|
B|--------------------------| B|---------------------------------|
G|--------------------------| G|---------------------------------|
D|--------7-7-9-7-5---------| D|--------7-7-9-7-5----------------|
A|--7-7-7----------7--5-5-5-| A|--7-7-7-----------7--7-7-7-5-5-5-|
E|--------------------------| E|---------------------------------|

E|-------------------------------| E|-----------------------------|
B|-------------------------------| B|-----------------------------|
G|-------------------------------| G|-----------------------------|
D|--------7-7-9-7-5--------------| D|--------7-7-7/14-14-14-9-9-9-|
A|-7-7-7-7---------7-7-7-7-5-5-5-| A|-7-7-7-7---------------------|
E|-------------------------------| E|-----------------------------|



E|-----8---------------15-|
B|-----------------12-----|
G|------------------------| X3
D|------------------------|
A|------------------------|
E|-5--5--5-5/12-12--------|

E|---3---------5------------------------|
B|---3---------5------------------------|
G|---4---------6------------------------|
D|---5---------7------------------------|
A|---5---------7------------------------|
E|---3---------5------------------------|

E|-----8---------------15-|
B|-----------------12-----|
G|------------------------| X3
D|------------------------|
A|------------------------|
E|-5--5--5-5/12-12--------|

E|---3----5-----3----5-----3----5------|
B|---3----5-----3----5-----3----5------|
G|---4----6-----4----6-----4----6------|
D|---5----7-----5----7-----5----7------|
A|---5----7-----5----7-----5----7------|
E|---3----5-----3----5-----3----5------|

E|--------------------------| E|---------------------------|
B|--------------------------| B|---------------------------|
G|--------------------------| G|---------------------------|
D|--------7-7-9-7-5---------| D|--------7-7-9-7-5----------|
A|--7-7-7----------7--5-5-5-| A|--7-7-7-----------7--5-5-5-|
E|--------------------------| E|---------------------------|

E|-------------------------------| E|-----------------------------------|
B|-------------------------------| B|-----------------------------------|
G|-------------------------------| G|-----------------------------------|
D|--------7-7-9-7-5--------------| D|--------7-7-7/14-14-14-17-17-17-17-|
A|-7-7-7-7---------7-7-7-7-5-5-5-| A|-7-7-7-7---------------------------|
E|-------------------------------| E|-----------------------------------|

E|-----8---------------15-|
B|-----------------12-----|
G|------------------------| X3
D|------------------------|
A|------------------------|
E|-5--5--5-5/12-12--------|

E|---3---------5----------|
B|---3---------5----------|
G|---4---------6----------|
D|---5---------7----------|
A|---5---------7----------|
E|---3---------5----------|

E|-------8---------------15-|
B|---------------------12---|
G|--------------------------|
D|--------------------------|
A|--------------------------|
E|-5-5-5--5--5-5/12-12------|

E|-----8---------------15-|
B|-----------------12-----|
G|------------------------| X2
D|------------------------|
A|------------------------|
E|-5--5--5-5/12-12--------|

E|---3----5-----3----5-----3----5------|
B|---3----5-----3----5-----3----5------|
G|---4----6-----4----6-----4----6------|
D|---5----7-----5----7-----5----7------|
A|---5----7-----5----7-----5----7------|
E|---3----5-----3----5-----3----5------|

E|--------------------------| E|---------------------------|
B|--------------------------| B|---------------------------|
G|--------------------------| G|---------------------------|
D|--------7-7-9-7-5---------| D|--------7-7-9-7-5----------|
A|--7-7-7----------7--5-5-5-| A|--7-7-7-----------7--5-5-5-|
E|--------------------------| E|---------------------------|

E|-------------------------------| E|-----------------------------------|
B|-------------------------------| B|-----------------------------------|
G|-------------------------------| G|-----------------------------------|
D|--------7-7-9-7-5--------------| D|--------7-7-7-5-5-5----------------|
A|-7-7-7-7---------7-7-7-7-5-5-5-| A|-7-7-7-7---------------------------|
E|-------------------------------| E|-----------------------------------|


E|--12-12-12--00-00-00---12-12-12--00-00-00-|
B|--00-00-00--12-12-12---00-00-00--12-12-12-|
G|------------------------------------------|
D|------------------------------------------|
A|------------------------------------------|
E|------------------------------------------|

E|--12-12-12--00-00-00---12-12-12--00-00-00-|
B|--00-00-00--12-12-12---00-00-00--12-12-12-|
G|------------------------------------------|
D|------------------------------------------|
A|------------------------------------------|
E|------------------------------------------|

E|--00-00-00-00--00--00-00-00-00-00-00-|
B|--10-10-10/17--17--17-17-17-19-17-17-|
G|-------------------------------------|
D|-------------------------------------|
A|-------------------------------------|
E|-------------------------------------|

E|------------------------------------|
B|--17-17-17-19-17-17-17-17-17-19-----|
G|------------------------------------|and repeat at the end
D|------------------------------------|
A|------------------------------------|
E|------------------------------------|
Suggest correction new What's this?
You can suggest a correction to this tab. Community and Mods will review your correction and vote to approve or reject it.
comments
print report bad tab
2 comments total.
+1 reply
FireTear95-12 57 wrote on November 9 2013, 02:48 pm

For the intro and chorus riffs, I play it like this:
|------------------------------------------------------------------------|
|------------------------------------------------------------------------|
|------------------------------------------------------------------------|
|------------------7--7--9---7-------------------------------------------|
|-------7---7---7----------------10---7---5---5--5-----------------------|
|------------------------------------------------------------------------|

And so on, so forth, but that is just me. The A string at the tenth fret produces the same pitch as the D string at the fifth fret, but I feel that the A string route is easier, feels more fluid, if you know what I mean. Great tab though, definitely worthy of 5-stars. Nicely done, keep tabbing, and uphold the faith.

+1 reply
kleist88 15 wrote on August 29 2015, 01:25 pm

E|--00-00-00-00--00--00-00-00-00-00-00-|
B|--10-10-10/17--17--17-17-17-20-17-17-|
G|-------------------------------------|
D|-------------------------------------|
A|-------------------------------------|
E|-------------------------------------|

at the end, i believe it is supposed to be 20th fret instead of 19th.

guest
You may want to rate the tab now too:
select rating
Please do not post tabs as comments. Select "correction" instead!