Oops, an error
Loading. Please wait.

Parallel Universe Tab

version 2
version 2

Whole song

Interactive

31,623 views 42 this week
4 commentsread comments
1 2 3 4 5
x 15
add to favorites
launch autoscroll
font size
0
reset
how to read this tab
guitar tuner
×
Best way to learn
"Parallel Universe"
Autoscroll
slow
fast
+/-
esc
set tempo
stop
[Intro]
e|------------------|
B|------------------|
G|-7-7-7-7-7-7-7-7--|
D|------------------|
A|------------------|
E|------------------|

e|--------------------------------------------------------------------------|
B|--------------------------------------------------------------------------|
G|-8-8-8-8-8-8-8-8--7-7-7-7-7-7-7-7--------------------5-5-5-5--4-4-4-4-----|
D|-----------------------------------3-3-3-3--5-5-5-5-----------------------|
A|--------------------------------------------------------------------------|
E|--------------------------------------------------------------------------|

[Verse]
e|--------------------------------------------------------------------------|
B|--------------------------------------------------------------------------|
G|-8-8-8-8-8-8-8-8--7-7-7-7-7-7-7-7--------------------5-5-5-5---4-4-4-4----|
D|-----------------------------------3-3-3-3--5-5-5-5-----------------------|
A|--------------------------------------------------------------------------|
E|--------------------------------------------------------------------------|

e|--------------------------------------------------------------6-6--7-7----|
B|-----------------------------------6-6-6-6--8-8-8-8-----------------------|
G|-8-8-8-8-8-8-8-8--7-7-7-7-7-7-7-7--------------------5-5-5-5--------------|
D|--------------------------------------------------------------------------|
A|--------------------------------------------------------------------------|
E|--------------------------------------------------------------------------|

[Chorus]
e|------------------------------------------------------------------------------------------|
B|------------------------------------------------------------------------------------------|
G|--5-5-5-5-------8-8-----------------------5-5-5-5-------8-8-------------------------------|
D|--5-5-5-5--6-6--8-8--5-5-5-5-5-5-5-5-5-5--5-5-5-5--6-6--8-8--5-5-5-5-5-5-5-5--------------|
A|--3-3-3-3--6-6--6-6--5-5-5-5-5-5-5-5-5-5--3-3-3-3--6-6--6-6--5-5-5-5-5-5-5-5--------------|
E|-----------4-4-------3-3-3-3-3-3-3-3-3-3-----------4-4-------3-3-3-3-3-3-3-3--------------|

[Verse]
e|--------------------------------------------------------------------------|
B|--------------------------------------------------------------------------|
G|-8-8-8-8-8-8-8-8--7-7-7-7-7-7-7-7--------------------5-5-5-5---4-4-4-4----|
D|-----------------------------------3-3-3-3--5-5-5-5-----------------------|
A|--------------------------------------------------------------------------|
E|--------------------------------------------------------------------------|

e|--------------------------------------------------------------6-6--7-7----|
B|-----------------------------------6-6-6-6--8-8-8-8-----------------------|
G|-8-8-8-8-8-8-8-8--7-7-7-7-7-7-7-7--------------------5-5-5-5--------------|
D|--------------------------------------------------------------------------|
A|--------------------------------------------------------------------------|
E|--------------------------------------------------------------------------|

[Chorus] (x2)
e|------------------------------------------------------------------------------------------|
B|------------------------------------------------------------------------------------------|
G|--5-5-5-5-------8-8-----------------------5-5-5-5-------8-8-------------------------------|
D|--5-5-5-5--6-6--8-8--5-5-5-5-5-5-5-5-5-5--5-5-5-5--6-6--8-8--5-5-5-5-5-5-5-5--------------|
A|--3-3-3-3--6-6--6-6--5-5-5-5-5-5-5-5-5-5--3-3-3-3--6-6--6-6--5-5-5-5-5-5-5-5--------------|
E|-----------4-4-------3-3-3-3-3-3-3-3-3-3-----------4-4-------3-3-3-3-3-3-3-3--------------|

[Interlude] (x2)
(bass plays a quick C-G-Ab-F on repeat, guitar comes in on every second time)
e|-----------------------------------------------------------------------------|
B|-----------------------------------------------------------------------------|
G|--8-8-8--------------------------------8-8-8---------------------------------|
D|---------8-8-8--------------------------------8-8-8--------------------------|
A|----------------10-10-------------------------------10-10--------------------|
E|-----------------------8-8-8-8-8-8-8-8---------------------8-8-8-8-8-8-8-8---|

[Verse]
e|----------------------------------------------------------------------------|
B|----------------------------------------------------------------------------|
G|-8-8-8-8-8-8-8-8--7-7-7-7-7-7-7-7--------------------5-5-5-5--4-4-4-4-------|
D|-----------------------------------3-3-3-3--5-5-5-5-------------------------|
A|----------------------------------------------------------------------------|
E|----------------------------------------------------------------------------|

e|--------------------------------------------------------------6-6--7-7------|
B|----------------------------------------------------------------------------|
G|-----------------------------------2-2-2-2--3-3-3-3--7-7-7-7----------------|
D|-5-5-5-5-5-5-5-5--3-3-3-3-3-3-3-3-------------------------------------------|
A|----------------------------------------------------------------------------|
E|----------------------------------------------------------------------------|

[Chorus] (x2)
e|------------------------------------------------------------------------------------------|
B|------------------------------------------------------------------------------------------|
G|--5-5-5-5-------8-8-----------------------5-5-5-5-------8-8-------------------------------|
D|--5-5-5-5--6-6--8-8--5-5-5-5-5-5-5-5-5-5--5-5-5-5--6-6--8-8--5-5-5-5-5-5-5-5--------------|
A|--3-3-3-3--6-6--6-6--5-5-5-5-5-5-5-5-5-5--3-3-3-3--6-6--6-6--5-5-5-5-5-5-5-5--------------|
E|-----------4-4-------3-3-3-3-3-3-3-3-3-3-----------4-4-------3-3-3-3-3-3-3-3--------------|

[Outro]
e|---------------------------------------------------------------------------------------------|
B|----------------------------6----------------------------------------------------------------|
G|--5-x-x-5----8-----------7-----7----2-----5-----4-----5----3----2----5----4------------------|
D|------------10----------------------3-----6-----5-----5----3----3----6----5------------------|
A|------------------------------------------------------3----1----5----6----5--etc--etc--------|
E|---------------------------------------------------------------------------------------------|


************************************

| x  Dead note

************************************
Suggest correction
comments
print report bad tab
4 comments total. Showing first comments.
0 reply
jasiunas 10 Oct 18, 2005 08:50 AM

nice. but not enough

0 reply
HeavyReverb 112 May 09, 2008 02:36 PM

What key is this in? Ab?

0 reply
Red_Mercury 10 Jan 20, 2009 10:25 PM

C minor. Missing solo?

guest
You may want to rate the tab now too:
select rating
Wanna post a correction for this tab? Suggest correction