Oops, an error
Loading. Please wait.

Police Station bass

version 1
version 1

Whole song

Interactive

11,591 views 30 this week
2 commentsread comments
1 2 3 4 5
x 7
add to favorites
×
Save as Personal and add changes to this tab that will be seen only by you. Learn more ›
×
You can save this tab as Personal to edit and correct it or add notes. All changes will be seen only by you. Learn more »
launch autoscroll
font size
0
reset
guitar tuner
backing track
0:00
0:00
edit
Autoscroll
slow
fast
+/-
esc
set tempo
stop
-------------------------------------------------------------------------------
                             Police Station - Red Hot Chili Peppers
-------------------------------------------------------------------------------

Tuning: EADG

Intro:

G|--9--11--12--14/16--14/12-------12------11----11--14--11/12------12--------|
D|-----------------------------10----10--------------------------------12----|
A|------------------------------------------------------------------------10-|
E|-------------------------------------------10------------------------------|

G|---------------------------------------------------------------------------|
D|-----7--9--9/10----10-10-10---10-------------------------------------------|
A|--8------------------------------10----------------------------------------|
E|------------------------------------8--------------------------------------|

Verse:

G|-----------------------------------9-9-9-----------------------------------|
D|------7--9--10----10-9-7---------9-------9---------------------------------|
A|--10---------------------7---7-7-----------7-------------------------------|
E|---------------------------------------------------------------------------|  x2

G|---------------------------------------------------------------------------|
D|---------5---7---7/9-------------5---7---7/9--7----------------------------|
A|--0--7-7---7---7------0-0--0-7-7---7---7-----------------------------------|
E|---------------------------------------------------------------------------|

G|---------------------------------------------------------------------------|
D|----------------5---7-5-------------------5---7-5--------------------------|
A|-------5-5--7-5---5--------------5-5--7-5---5------------------------------|
E|--3--3-------------------3-3--3--------------------------------------------|

G|---------------------------------------------------------------------------|
D|---------5---7---7/9-------------5---7---7/9--7----------------------------|
A|--0--7-7---7---7------0-0--0-7-7---7---7-----------------------------------|
E|---------------------------------------------------------------------------|

2nd Verse:

G|-----------------------------------9-9-9-----------------------------------|
D|------7--9--10----10-9-7---------9-------9---------------------------------|
A|--10---------------------7---7-7-----------7-------------------------------|
E|---------------------------------------------------------------------------|

G|-------------------------------------9-X-11h12p-9--------------------------|
D|-----7--9--10----9h10-9-7----------9---------------------------------------|
A|--10----------------------7---7-7------------------------------------------|
E|---------------------------------------------------------------------------|

G|---------------------------------------------------------------------------|
D|---------5---7---7/9-------------5---7---7/9--7----------------------------|
A|--0--7-7---7---7------0-0--0-7-7---7---7-----------------------------------|
E|---------------------------------------------------------------------------|

G|---------------------------------------------------------------------------|
D|----------------5---7-5-------------------5---7-5--------------------------|
A|-------5-5--7-5---5--------------5-5--7-5---5------------------------------|
E|--3--3-------------------3-3--3--------------------------------------------|

G|---------------------------------------------------------------------------|
D|---------5---7---7/9-------------5---7---7/9--7----------------------------|
A|--0--7-7---7---7------0-0--0-7-7---7---7-----------------------------------|
E|---------------------------------------------------------------------------|

Pre Chorus:

G|--------7-7-7-----------7-7-7------5---------------------------------------|
D|------7-------7-------7-------7------7-------------------------------------|
A|--5-5-----------5---5-----------5------7-----------------------------------|
E|---------------------------------------------------------------------------|

Chorus:

G|-------------------------------5/7-5---------------------------------------|
D|-----------------------------5-------5-------------------------------------|
A|-----------------3h5--3-3-3------------3-----------------------------------|
E|--1-1-1-1-1--3/5-----------------------------------------------------------|

G|---------------------------------------------------------------------------|
D|------------------4---7----------------------------------------------------|
A|--0-0-4-0-5-0-7-0---0---0-4-0-5-0-7-0-5-4----------------------------------|
E|------------------------------------------7-5------------------------------|

G|-------------------------------5/7-5---------------------------------------|
D|-----------------------------5-------5-------------------------------------|
A|-----------------3h5--3-3-3------------3-----------------------------------|
E|--1-1-1-1-1--3/5-----------------------------------------------------------|

G|---------------------------------------------------------------------------|
D|------------------4---7----------------------------------------------------|
A|--0-0-4-0-5-0-7-0---0---0-4-0-5-0-7-0-5h7-7--------------------------------|
E|---------------------------------------------------------------------------|

3rd Verse:

G|-----------------------------------9-9-9-----------------------------------|
D|------7--9--10----10-9-7---------9-------9---------------------------------|
A|--10---------------------7---7-7-----------7-------------------------------|
E|---------------------------------------------------------------------------|  x2

G|---------------------------------------------------------------------------|
D|---------5---7---7/9-------------5---7---7/9--7----------------------------|
A|--0--7-7---7---7------0-0--0-7-7---7---7-----------------------------------|
E|---------------------------------------------------------------------------|

G|---------------------------------------------------------------------------|
D|----------------5---7-5-------------------5---7-5--------------------------|
A|-------5-5--7-5---5--------------5-5--7-5---5------------------------------|
E|--3--3-------------------3-3--3--------------------------------------------|

G|---------------------------------------------------------------------------|
D|---------5---7---7/9-------------5---7---7/9--7----------------------------|
A|--0--7-7---7---7------0-0--0-7-7---7---7-----------------------------------|
E|---------------------------------------------------------------------------|

Pre Chorus:

G|--------7-7-7-----------7-7-7------5---------------------------------------|
D|------7-------7-------7-------7------7-------------------------------------|
A|--5-5-----------5---5-----------5------7-----------------------------------|
E|---------------------------------------------------------------------------|

Chorus:

G|-------------------------------5/7-5---------------------------------------|
D|-----------------------------5-------5-------------------------------------|
A|-----------------3h5--3-3-3------------3-----------------------------------|
E|--1-1-1-1-1--3/5-----------------------------------------------------------|

G|---------------------------------------------------------------------------|
D|------------------4---7----------------------------------------------------|
A|--0-0-4-0-5-0-7-0---0---0-4-0-5-0-7-0-5-4----------------------------------|
E|------------------------------------------7-5------------------------------|

G|-------------------------------5/7-5---------------------------------------|
D|-----------------------------5-------5-------------------------------------|
A|-----------------3h5--3-3-3------------3-----------------------------------|
E|--1-1-1-1-1--3/5-----------------------------------------------------------|

G|---------------------------------------------------------------------------|
D|------------------4---7----------------------------------------------------|
A|--0-0-4-0-5-0-7-0---0---0-4-0-5-0-7-0-5h7-7--------------------------------|
E|---------------------------------------------------------------------------|

Bridge:

G|---------------------------------------------------------------------------|
D|---------------------------------------------------------------------------|
A|--5-5-5-5-5-5-5-5-5/17-17-17-17-17-17-17-17--------------------------------|
E|---------------------------------------------------------------------------|

G|---------------------------------------------------------------------------|
D|--------7-------7--------7-------7-----------------------------------------|
A|------7-------7--------7-------7-------------------------------------------|
E|--5-5-----5-5------5-5-----5-5---------------------------------------------|

G|---------------------------------------------------------------------------|
D|--------2-------2-------2-------2------------------------------------------|
A|------2-------2-------2-------2--------------------------------------------|
E|--0-0-----0-0-----0-0-----0-0----------------------------------------------|

G|---------------------------------------------------------------------------|
D|--------7-------7--------7-------7-----------------------------------------|
A|------7-------7--------7-------7-------------------------------------------|
E|--5-5-----5-5------5-5-----5-5---------------------------------------------|

G|---------------------------------------------------------------------------|
D|---------10--------10--------10--------10----------------------------------|
A|------10--------10--------10--------10-------------------------------------|
E|--8-8-------8-8-------8-8-------8-8----------------------------------------|

G|---------------------------------------------------------------------------|
D|-----------12----------12----------12----------12--------------------------|
A|--------12----------12----------12----------12-----------------------------|
E|--10-10-------10-10-------10-10-------10-10--------------------------------|

4th Verse:

G|-----------------------------------9-9-9-----------------------------------|
D|------7--9--10----10-9-7---------9-------9---------------------------------|
A|--10---------------------7---7-7-----------7-------------------------------|
E|---------------------------------------------------------------------------|  x2

G|---------------------------------------------------------------------------|
D|---------5---7---7/9-------------5---7---7/9--7----------------------------|
A|--0--7-7---7---7------0-0--0-7-7---7---7-----------------------------------|
E|---------------------------------------------------------------------------|

G|---------------------------------------------------------------------------|
D|----------------5---7-5-------------------5---7-5--------------------------|
A|-------5-5--7-5---5--------------5-5--7-5---5------------------------------|
E|--3--3-------------------3-3--3--------------------------------------------|

G|---------------------------------------------------------------------------|
D|---------5---7---7/9-------------5---7---7/9--7----------------------------|
A|--0--7-7---7---7------0-0--0-7-7---7---7-----------------------------------|
E|---------------------------------------------------------------------------|

Pre Chorus:

G|--------7-7-7-----------7-7-7------5---------------------------------------|
D|------7-------7-------7-------7------7-------------------------------------|
A|--5-5-----------5---5-----------5------7-----------------------------------|
E|---------------------------------------------------------------------------|

Chorus:

G|-------------------------------5/7-5---------------------------------------|
D|-----------------------------5-------5-------------------------------------|
A|-----------------3h5--3-3-3------------3-----------------------------------|
E|--1-1-1-1-1--3/5-----------------------------------------------------------|

G|---------------------------------------------------------------------------|
D|------------------4---7----------------------------------------------------|
A|--0-0-4-0-5-0-7-0---0---0-4-0-5-0-7-0-5-4----------------------------------|
E|------------------------------------------7-5------------------------------|

G|-------------------------------5/7-5---------------------------------------|
D|-----------------------------5-------5-------------------------------------|
A|-----------------3h5--3-3-3------------3-----------------------------------|
E|--1-1-1-1-1--3/5-----------------------------------------------------------|

G|---------------------------------------------------------------------------|
D|------------------4---7----------------------------------------------------|
A|--0-0-4-0-5-0-7-0---0---0-4-0-5-0-7-0-5h7-7--------------------------------|
E|---------------------------------------------------------------------------|

Improve Ending:

G|---------------------------------------------------------------------------|
D|--------9--------9--------2-------2----------------------------------------|
A|------9--------9--------2-------2------------------------------------------|
E|--7-7------7-7------0-0-----0-0--------------------------------------------|

            
            
Suggest correction
Creating personal tab
Creating personal tab
You can edit any tab online and save it as your Personal.

You can edit, replace or remove any tab part or add personal notes – all changes will be seen only by you.

Personal tabs can be accessed anytime from any device, even offline.
Learn more »
comments
print report bad tab
2 comments total.
-1 reply
DannyBassRocker 10 Aug 19, 2012 05:44 PM

This is pretty much the same thing as the bass cover that Davidsinrocks has on youtube.

+1 reply
THWIT 534 Jun 01, 2013 10:14 AM

Probably because it's the right way to play the song? :)

guest
You may want to rate the tab now too:
select rating
Wanna post a correction for this tab? Suggest correction