Oops, an error
Loading. Please wait.

Police Station bass

version 2
version 2

Whole song

Interactive

2,170 views 1 this week
1 commentread comment
1 2 3 4 5
1 last vote to show rating
add to favorites
×
Save as Personal and add changes to this tab that will be seen only by you. Learn more ›
×
You can save this tab as Personal to edit and correct it or add notes. All changes will be seen only by you. Learn more »
launch autoscroll
font size
0
reset
guitar tuner
backing track
0:00
0:00
edit
Autoscroll
slow
fast
+/-
esc
set tempo
stop
Author
Title: Police Station
Artist: Red Hot Chili Peppers
Album: I'm With You
Words + Music: Anthony Kiedis, Flea, Chad Smith and Josh Klinghoffer

Tabber: Joel Pickett 
Tempo = 84
Bass

Legend
L - tied note
x - dead note
h - hammer on/pull off
b - bend
s - slide
~ - vibrato
g - ghost note
> - accentuated note
t - trill
M - palm mute
. - staccato
P - popping (bass)
S - slapping (bass)
+ - tapping
W - wide vibrato
< - fade in
w - whammy bar
= - tremolo picking
v - brush up
^ - brush down
V - pick stroke up
n - pick stroke down

Intro ==

G |-------|--9L----------------------9--------11----12----12s--|
D |-------|----------------------------------------------------|
A |-------|--7L----------------------7-------------------------|
E |-------|----------------------------------------------------|


--16L---------------16----14----12----------12------------------------------|
--------------------------------------10----------10L---10------------------|
----------------------------------------------------------------------------|
----------------------------------------------------------------------------|


--11----------------------11-------11L11-14---------|
----------------------------------------------------|
----------------------------------------------------|
--------10----------10----------10-------------10---|


--12L---------12-12---------------------------------|
--------------------12------------------------------|
-----------------------10L10----------10----10s-----|
----------------------------------------------------|


----------------------------------------------------|
-----------------------------------7L-7--8-----9----|
--8L----------8--------8L-8--8----------------------|
----------------------------------------------------|


----------------------------------------------------|
--10----10-------------10L10-10-10-------10---------|
--------------------------------------------10------|
-----------------------------------------------8L---|


----------------------------------------------------|
----------------------------------------------------|
----------------------------------------------------|
--8L----------8--------8--------8--------8--8-------|

Verse ==

----------------------------------------------------|
-----------------7--9--10L10-------10L10-10-9--7----|
--10----------10------------------------------------|
----------------------------------------------------|


-----------------------9L-9--9-----9L-9-------------|
--------------------9--------------------9----------|
--7-----7-----7-----------------------------7--9----|
----------------------------------------------------|


----------------------------------------------------|
-----------------7--9--10L10-------10L10-10-9--7----|
--10----------10------------------------------------|
----------------------------------------------------|


--------------------7--9L-9--9-----9L-9-------------|
-----------------------------------------9----------|
--7-----7-----7-----------------------------7--7----|
----------------------------------------------------|


--------------------------------------------------------------------------------|
--------------------------------------5-----------7-----------------7s-9L----9--|
--------------------------7-----7-----------7-----------------7-----------------|
--5-----------------------------------------------------------------------------|


-----------------------|
---7-------------------|
---------7-------------|
---------------5L------|


--------------------------------------------------------------------------------|
--------------------------------------5-----------7-----------------7s-9L----9--|
--------------------------7-----7-----------7-----------------7-----------------|
--5-----5-----------5-----------------------------------------------------------|


-----------------------|
---7-------------------|
---------------5-------|
-----------------------|


--------------------------------------------------------------------------------|
--------------------------------------2-----------5-----------------5s-7L----7--|
--------------------------5-----------------5-----------------5-----------------|
--3-----------------------------------------------------------------------------|


-----------------------|
---5-------------------|
-----------------------|
---------------3L------|


--------------------------------------------------------------------------------|
--------------------------------------2-----------5-----------------5s-7L----7--|
--------------------------5-----5-----------5-----------------5-----------------|
--3-----3-----------3-----------------------------------------------------------|


-----------------------|
---5-------------------|
---------------7-------|
-----------------------|


--------------------------------------------------------------------------------|
--------------------------------------5-----------7-----------------7s-9L----9--|
--------------------------7-----7-----------7-----------------7-----------------|
--5-----------------------------------------------------------------------------|


-----------------------|
---7-------------------|
-----------------------|
---------------5L------|


--------------------------------------------------------------------------------|
--------------------------------------5-----------7-----------------7s-9L----9--|
--------------------------7-----7-----------7-----------------7-----------------|
--5-----5-----------5-----------------------------------------------------------|


-----------------------|----------------------------------------------------|
---7-------------------|-----------------7--9--10L10-------10L10-10-9--7----|
---------10------------|--10----------10------------------------------------|
-----------------------|----------------------------------------------------|


--------------------------------------------8h-9L----9-----9-----------9L----9--|
--------------------------------------9-----------------------------------------|
--7-----------7-----------7-----------------------------------------------------|
--------------------------------------------------------------------------------|


-----------------------|----------------------------------------------------|
---9-------------------|-----------------7--9--10L10-10----10L10-10-9--7----|
---------7-----9-------|--10----10-10-10------------------------------------|
-----------------------|----------------------------------------------------|


-----------------------9L-9--9-----9L-9-------------|
--------------------9--------------------9----------|
--7-----7-----7-----------------------------7--7----|
----------------------------------------------------|


--------------------------------------------------------------------------------|
--------------------------------------5-----------7-----------------7s-9L----9--|
--------------------------7-----7-----------7-----------------7-----------------|
--5-----------------5-----------------------------------------------------------|


-----------------------|
---7-------------------|
-----------------------|
---------------5L------|


--------------------------------------------------------------------------------|
--------------------------------------5-----------7-----------------7s-9--------|
--------------------------7-----7-----------7-----------------7-----------------|
--5-----5-----------5-----------------------------------------------------------|


-----------------------|
---7-----7-------------|
---------------7-------|
-----------------------|


--------------------------------------------------------------------------------|
--------------------------------------2-----------5-----------------5s-7--------|
--------------------------5-----5-----------5-----------------5-----------------|
--3-----------------3-----------------------------------------------------------|


-----------------------|
---5-------------------|
-----------------------|
---------------3L------|


--------------------------------------------------------------------------------|
--------------------------------------2-----------5-----------------5s-7L----7--|
--------------------------5-----5-----------5-----------------5-----------------|
--3-----3-----------3-----------------------------------------------------------|


-----------------------|
---5-------------------|
---------------x-------|
-----------------------|


--------------------------------------------------------------------------------|
--------------------------------------5-----------7-----------------7s-9--------|
--------------------------7-----------------7-----------------7-----------------|
--5-----------------5-----------------------------------------------------------|


-----------------------|----------------------------------------------------|
---7-------------------|--------------------5-----7--------9-----7----------|
-----------------------|--------------7--7-----7--------7-------------------|
---------------5L------|--5--5-----5----------------------------------------|


-----------------------7L-7--7-----7L-7-------------|
--------------------7--------------------7----------|
--5-----------5-----------------------------5--0----|
----------------------------------------------------|


--------------------7--7L-7-----7--7L-7-------------|
-----------------7-----------7-----------7----------|
--5--5-----5L-5-----------------------------5--7s---|
----------------------------------------------------|

Chorus ==

----------------------------------------------------|
----------------------------------------------------|
--------------------------------------------3--5----|
--1--------1--1--------1L-1--1-----1s-3--5----------|


----------------------------------------------------|
----------------------------------------------------|
--3-----3-----3-----3--3L-3--3-----3--5L-5L-5--3----|
----------------------------------------------------|


----------------------------------------------------|
-----------------------------------------4----------|
--0--------0--4-----0--5L-5--0--7-----0--------7----|
----------------------------------------------------|


----------------------------------------------------|
--7-----7-------------------------------------------|
-----------4L-4--4--5-----5--7-----7--5--4--0-------|
-----------------------------------------------3----|


----------------------------------------------------|
----------------------------------------------------|
-----------------------------------------------2s---|
--1-----------1-----1--1L-1--1--3-----3--5----------|


-----------------------5L-5-------------------------|
--------------------5-------------------------------|
--3-----3-----3-----------------3--5s-7-----5-------|
----------------------------------------------------|


----------------------------------------------------|
-----------------------------------------4----------|
--0-----0--0--4-----0--5L-5--0--7-----7--------7----|
----------------------------------------------------|


-----------6L-6-----7-----7--9-----9--7h-6----------|
--7-----7--------7--------------------------7-------|
-----------------------------------------------7----|
----------------------------------------------------|

Verse ==

----------------------------------------------------|
-----------------7--9--10L10-------10L10-10-9--7----|
--10----------10------------------------------------|
----------------------------------------------------|


-----------------------9L-9--9-----9L-9-------------|
--------------------9--------------------9----------|
--7-----7-----7-----------------------------7--9----|
----------------------------------------------------|


----------------------------------------------------|
-----------------7--9--10L10-------10L10-10-9--7----|
--10----------10------------------------------------|
----------------------------------------------------|


--------------------7--9L-9--9-----9L-9-------------|
-----------------------------------------9----------|
--7-----7-----7-----------------------------7--7----|
----------------------------------------------------|


--------------------------------------------------------------------------------|
--------------------------------------5-----------7-----------------7s-9L----9--|
--------------------------7-----7-----------7-----------------7-----------------|
--5-----------------5-----------------------------------------------------------|


-----------------------|
---7-------------------|
-----------------------|
---------------5L------|


--------------------------------------------------------------------------------|
--------------------------------------5-----------7-----------------7s-9L----9--|
--------------------------7-----7-----------7-----------------7-----------------|
--5-----5-----------5-----------------------------------------------------------|


-----------------------|
---7-------------------|
---------------5-------|
-----------------------|


--------------------------------------------------------------------------------|
--------------------------------------2-----------5-----------------5s-7L----7--|
--------------------------5-----------------5-----------------------------------|
--3-----------3-----3-----------------------------------------------------------|


-----------------------|
---5-------------------|
-----------------------|
---------------3L------|


--------------------------------------------------------------------------------|
--------------------------------------2-----------5-----------------5s-7L----7--|
--------------------------5-----5-----------5-----------------5-----------------|
--3-----3-----------3-----------------------------------------------------------|


-----------------------|
---5-------------------|
---------------x-------|
-----------------------|


--------------------------------------------------------------------------------|
--------------------------------------5-----------7-----------------7s-9--------|
--------------------------7-----------------7-----------------7-----------------|
--5-----------------------------------------------------------------------------|


-----------------------|
---7-------------------|
-----------------------|
---------------5L------|


--------------------------------------------------------------------------------|
--------------------------------------5-----------7-----------------7s-9--------|
--------------------------7-----7-----------7-----------------7-----------------|
--5-----5-----------5-----------------------------------------------------------|


-----------------------|-----------------------7L-7--7-----7L-7-------------|
---7-------------------|--------------------7--------------------7----------|
---------------7-------|--5-----------5-----------------------------5--0----|
-----------------------|----------------------------------------------------|


--------------7--7--------------7--7L-7-------------|
-----------7-----------7-----7-----------7----------|
--5--5--------------------5-----------------5--7s---|
----------------------------------------------------|

Chorus ==

----------------------------------------------------|
----------------------------------------------------|
--------------------------------------------3--5----|
--1-----------1-----1--1L-1--1--1--1--3s-5----------|


----------------------------------------------------|
--------------------------------------5-------------|
--3-----3-----3-----3--3L-3--3--5s-7-----7--5-------|
-----------------------------------------------0----|


----------------------------------------------------|
-----------------------------------------4----------|
--0-----0--0--4-----0--5L-5--0--7-----7--------7----|
----------------------------------------------------|


----------------------------------------------------|
--7-----7-------------------------------------------|
-----------4--4--4--5-----5--5--7--3h-4--0-----0----|
--------------------------------------------3-------|


----------------------------------------------------|
----------------------------------------------------|
-----------------------------------4s-7--7--5--5----|
--1-----1-----1--------1L-1--1--1-------------------|


----------------------------------------------------|
--------------------5-----5--7--5--5--5-------------|
--3-----3--3--5s-7-----7-----------------7--5--7----|
----------------------------------------------------|


----------------------------------------------------|
-----------------------------------------4-----5----|
--0--------0--4-----0--5L-5--0--7-----7-------------|
----------------------------------------------------|


--------------------------------------------------------------------------------|
--5s-7-----7-----7-----7-----7-----------------7L----7-----------7-----7--------|
-----------------------------------------7-----------------7-----------------7--|
--------------------------------------------------------------------------------|

                         Interlude ==
-----------------------|----------------------------------------------------|
---7-----7-------------|----------------------------------------------------|
---------------7-------|--5-----5-----5-----5--5L-5--5--5-----5--5--5--5----|
-----------------------|----------------------------------------------------|


----------------------------------------------------|
----------------------------------------------------|
--8s----17-17-17----17-17L17-17-17-17-17s-----------|
----------------------------------------------------|

Bridge ==

-----2-----2-----2-----2-----2-----2-----2-----2----|
--------2-----------2-----------2-----------2-------|
--0-----------0-----------0-----------0-------------|
----------------------------------------------------|


-----2-----2-----2-----2-----2-----2-----2----------|
--------2-----------2-----------2-----------2-------|
--0-----------0-----------0-----------0-------------|
----------------------------------------------------|


----------------------------------------------------|
-----2-----2-----2-----2-----2-----2-----2-----2----|
--------2-----------2-----------2-----------2-------|
--0-----------0-----------0-----------0-------------|


----------------------------------------------------|
-----2-----2-----2-----2-----2-----2-----2----------|
--------2-----------2-----------2-----------2-------|
--0-----------0-----------0-----------0-------------|


-----2-----2-----2-----2-----2-----2-----2-----2----|
--------2-----------2-----------2-----------2-------|
--0-----------0-----------0-----------0-------------|
----------------------------------------------------|


-----2-----2-----2-----2-----2-----2-----2----------|
--------2-----------2-----------2-----------2-------|
--0-----------0-----------0-----------0-------------|
----------------------------------------------------|


-----5-----5-----5-----5-----5-----5-----5----------|
--------5-----------5-----------5-----------5-------|
--3-----------3-----------3-----------3-------------|
----------------------------------------------------|


-----------7L-7--------7L-7--------7L-7--------7L---|
--------7-----------7-----------7-----------7-------|
--5--5-----------5-----------5-----------5----------|
----------------------------------------------------|


--7--------7L-7--------7L-7--------7L-7-------------|
--------7-----------7-----------7-------------------|
-----5-----------5-----------5-----------5-----x----|
----------------------------------------------------|

Verse ==

----------------------------------------------------|
-----------------7--9--10L10-------10L10-10-9--7----|
--10L---------10------------------------------------|
----------------------------------------------------|


-----------------------9L-9--9-----9L-9-------------|
--------------------9--------------------9----------|
--7-----7-----7-----------------------------7--9----|
----------------------------------------------------|


----------------------------------------------------|
-----------------7--9--10L10-------10L10-10-9--7----|
--10L---------10------------------------------------|
----------------------------------------------------|


-----------------------9L-9--9-----9L-9-------------|
--------------------9--------------------9----------|
--7-----7-----7-----------------------------7--7----|
----------------------------------------------------|


--------------------------------------------------------------------------------|
--------------------------------------5-----------7-----------------7s-9L----9--|
--------------------------7-----7-----------7-----------------7-----------------|
--5-----------------------------------------------------------------------------|


-----------------------|
---7-------------------|
-----------------------|
---------------5L------|


--------------------------------------------------------------------------------|
--------------------------------------5-----------7-----------------7s-9L----9--|
--------------------------7-----7-----------7-----------------7-----------------|
--5-----5-----------5-----------------------------------------------------------|


-----------------------|
---7-------------------|
---------------5-------|
-----------------------|


--------------------------------------------------------------------------------|
--------------------------------------2-----------5-----------------5s-7L----7--|
--------------------------5-----------------5-----------------2-----------------|
--3-----------------------------------------------------------------------------|


-----------------------|
---5-------------------|
-----------------------|
---------------3L------|


--------------------------------------------------------------------------------|
--------------------------------------2-----------5-----------------5s-7L----7--|
--------------------------5-----5-----------5-----------------5-----------------|
--3-----3-----------3-----------------------------------------------------------|


-----------------------|
---5-------------------|
---------------7-------|
-----------------------|


--------------------------------------------------------------------------------|
--------------------------------------5-----------7-----------------7s-9L----9--|
--------------------------7-----7-----------7-----------------7-----------------|
--5-----------------------------------------------------------------------------|


-----------------------|
---7-------------------|
-----------------------|
---------------5L------|


--------------------------------------------------------------------------------|
--------------------------------------5-----------7-----------------7s-9L----9--|
--------------------------7-----7-----------7-----------------7-----------------|
--5-----5-----------5-----------------------------------------------------------|


-----------------------|-----------------------7L-7--7-----7L-7-------------|
---7-------------------|--------------------7--------------------7----------|
---------------7-------|--5-----------5-----------------------------5--0----|
-----------------------|----------------------------------------------------|


--------------7-----------------7-----7-------------|
-----------7-----------------7-----7----------------|
--5--5--------------5--5L-5-----------------5--7s---|
----------------------------------------------------|

Chorus ==

----------------------------------------------------|
----------------------------------------------------|
--------------------------------------------3--5----|
--1-----------1-----1--1L-1--1--1--1--3s-5----------|


----------------------------------------------------|
-----------------------------------5----------------|
--3-----3-----3-----3--3L-3--5s-7-----7s-5--3-------|
----------------------------------------------------|


----------------------------------------------------|
-----------------------------------------4-----4s---|
--0-----------4-----0--5L-5--0--7-----7-------------|
----------------------------------------------------|


----------------------------------------------------|
--7-----7-------------------------------------------|
-----------4L-4--4--5-----5--7----------------------|
-----------------------------------3--5-----3s------|


----------------------------------------------------|
----------------------------------------------------|
--------------------------------------------3--5----|
--1-----------1-----1--1L-1--1-----1--3s-5----------|


----------------------------------------------------|
----------------------------------------------------|
--3-----3-----3-----3--3L-3--3--5s-7--5--7--5s------|
----------------------------------------------------|


----------------------------------------------------|
-----------------------------------------4-----6----|
--0-----0-----4-----0--5L-5--0--7-----7-------------|
----------------------------------------------------|


--------------------6L----6-----6-----7-----------7s-9-----9-----------7-----9--|
--7-----------7-----------------------------------------------------------------|
--------------------------------------------------------------------------------|
--------------------------------------------------------------------------------|


---7-----9-------------|----------------------------------------------------|
-----------------------|----------------------------------------------------|
---------------0-------|--------------------------------------------3--5----|
-----------------------|--1--------1--1-----1--1L-1--1--1--1--3s-5----------|


----------------------------------------------------|
--------------------------5-----7-----5-------------|
--3-----3-----3-----5s-7-----------------7--5s-7----|
----------------------------------------------------|


----------------------------------------------------|----------|
----------------------------------------------------|----------|
--0-----0--0----------------------------------------|----------|
--------------2-----2--3L-3--3--4-----4--5-----5----|--5s-17s--|

Outro ==

-----2-----2-----2-----2-----2-----2-----2-----2----|
--------2-----------2-----------2-----------2-------|
--0-----------0-----------0-----------0-------------|
----------------------------------------------------|


-----2-----2-----2-----2-----2-----2-----2----------|
--------2-----------2-----------2-----------2-------|
--0-----------0-----------0-----------0-------------|
----------------------------------------------------|


----------------------------------------------------|
-----2-----2-----2-----2-----2-----2-----2-----2----|
--------2-----------2-----------2-----------2-------|
--0-----------0-----------0-----------0-------------|


----------------------------------------------------|
-----2-----2-----2-----2-----2-----2-----2----------|
--------2-----------2-----------2-----------2-------|
--0-----------0-----------0-----------0-------------|


-----2-----2-----2-----2-----2-----2-----2-----2----|
--------2-----------2-----------2-----------2-------|
--0-----------0-----------0-----------0-------------|
----------------------------------------------------|


-----2-----2-----2-----2-----2-----2-----2----------|
--------2-----------2-----------2-----------2-------|
--0-----------0-----------0-----------0-------------|
----------------------------------------------------|


----------------------------------------------------|
-----2-----2-----2-----2-----2-----2-----2-----2----|
--------2-----------2-----------2-----------2-------|
--0-----------0-----------0-----------0-------------|


----------------------------------------------------|
-----2-----2-----2-----2-----2-----2-----2----------|
--------2-----------2-----------2-------------------|
--0-----------0-----------0-----------0-----0--0----|


-----------------------------------5----------------|
--7--------------------5L-5-----7-----7--7--7-------|
-----------------7-----------7-----------------7----|
--------7--8L-8-------------------------------------|


----------------------------------------------------|
-----------------------7s-9--7----------------------|
-----------------7-----------------7L-7--5----------|
--5--7-----8L-8-----------------------------5s-3----|


----------------------------------------------------|
----------------------------------------------------|
-----------------------------2s----7L-7--7--7--7----|
--0--------0--2--3-----5L-5-------------------------|


----------------------------------------------------|
----------------------------------------------------|
-----------------------------2-----5--5--2-----2s---|
--0--------0--2--3-----5L-5-----------------5-------|


----------------------------------------------------|
--7--7-----7--7-----7--7L-7--7----------------------|
--------7--------7-----------------7L-7--------7----|
-----------------------------------------10s8-------|


----------------------------------------------------|
-----------------7-----7L-7--------7--7--7-----7----|
-----7-----7--7--------------7--------------7-------|
--5-------------------------------------------------|


----------------------------------------------------|
----------------------------------------------------|
-----------------------------------------2--2s------|
--0-----------2--------3L-3-----5L----5-------------|


----------------------------------------------------|
----------------------------------------------------|
--7--------9L-9s----7L----7s-5--5--5L-5--3s---------|
----------------------------------------------------|


----------------------------------------------------|
-----------------------------7-----7L-7--7----------|
--------------------7--7--7-----7-----------7-------|
--5-------------------------------------------------|


--------------------------------------------------------------------------------|
--------------------------------------------------7-----------------------------|
--------------------------------------7-----------------------------------------|
--5-----------------------------------------------------------------------------|


--------------------------------------------------------------------------------|
------7s-------9L----------9----------------------------------------------------|
---------------------------------------------------------------------------7----|
--------------------------------------------------------------------------------|


---------------------------------------------|-------|----------------||
-------------------5-------------------------|-------|----------------||
---------------------------------------------|--7L---|--7-------------||
---------------------------------------------|--0L---|--0-------------||
Suggest correction
Creating personal tab
Creating personal tab
You can edit any tab online and save it as your Personal.

You can edit, replace or remove any tab part or add personal notes – all changes will be seen only by you.

Personal tabs can be accessed anytime from any device, even offline.
Learn more »
Give kudos to tab author, rate the tab!
1 2 3 4 5
comments
print report bad tab
1 comment total.
0 reply
boby9933 67 Jan 03, 2016 06:54 AM

great tab, but it's not easy to get an overview

guest
You may want to rate the tab now too:
select rating
Wanna post a correction for this tab? Suggest correction