Oops, an error
Loading. Please wait.

Power Of Equality tab

version 1
version 1

Whole song

Interactive

39,746 views 135 this week
1 commentread comment
1 2 3 4 5
x 13
add to favorites
×
Save as Personal and add changes to this tab that will be seen only by you. Learn more ›
×
You can save this tab as Personal to edit and correct it or add notes. All changes will be seen only by you. Learn more »
launch autoscroll
font size
0
reset
how to read this tab
guitar tuner
backing track
0:00
0:00
edit
Autoscroll
slow
fast
+/-
esc
set tempo
stop
Author
Unregistered
#----------------------------------PLEASE NOTE---------------------------------#
#This file is the author's own work and represents their interpretation of the #
#song. You may only use this file for private study, scholarship, or research. #
#------------------------------------------------------------------------------##
From: Didier Thizy <75624.1665@CompuServe.COM>
Subject: The Power of Equality

THE POWER OF EQUALITY
(Tune high E down to Eb)

Here's the verse rhythm:

e|---0---0-0-0-0-0--0-0-0--0-0-0-0-|--0--0-0-0-0-0--0-0-0--0-0-0-0-|
B|---7-----------7------7----------|--7----------7------7----------|
G|---6-----------6------6----------|--6----------6------6----------|
D|---------------------------------|-------------------------------|
A|---------------------------------|-------------------------------|
E|---------------------------------|-------------------------------|

Play this at "Can I get just a little bit of power?"

e|6--6--6--6--6--6--6--6|
B|5--5--5--5--5--5--5--5|
G|5--5--5--5--5--5--5--5|
D|4--4--4--4--4--4--4--4|
A|----------------------|
E|----------------------|

[Chorus]
                                                      PM................
e|----------------------------------|-----------------------------------|
B|----------------------------------|-----x--9--------11------11--9-----|
G|----6-6--6---5--5-5---4-4---------|-----x--9--9-----11--11--11--9-----|
D|---------------------------6--5---|--4-----------------------------11-|
A|----------------------------------|-----------------------------------|
E|----------------------------------|-----------------------------------|

Play solo over this rhythm:
e|-----------14-14----13-13---6-|--------14-14--13-13------6-|
B|-----------13-13----12-12---5-|--------13-13--12-12------5-|
G|---7p5~----10-10----12-12-----|--7p5---10-10--12-12--------|
D|------------------------------|----------------------------|
A|------------------------------|----------------------------|
E|------------------------------|----------------------------|

[Solo]

e|-----------------------------|-----------------------------|
B|-----------------------------|-----------------------------|
G|----10-----------------------|--13-12-------------10-------|
D|-------12-------------10-12--|-----------------12----10p12-|
A|-----------------------------|-----------------------------|
E|-----------------------------|-----------------------------|

e|---------------------|------------------------------|
B|---------------------|--13-15-----13-15-------------|
G|-10------------------|------------------------------|
D|----12---------------|------------------------------|
A|---------------------|------------------------------|
E|---------------------|------------------------------|

e|--14-14----------------------|------------------------------|
B|--------13-15--10-12---------|------------------------------|
G|----------------------12-10--|-----10----------12-10--13-12-|
D|-----------------------------|--12--------------------------|
A|-----------------------------|------------------------------|
E|-----------------------------|------------------------------|

e|-------------------------14-|-------------------------------------------|
B|----------------------------|---15-13-15---15-13-15---15-13-15--13/15\--|
G|------14-12-10----10--------|-------------------------------------------|
D|---------------12-----------|-------------------------------------------|
A|----------------------------|-------------------------------------------|
E|----------------------------|-------------------------------------------|

There's also a second kind of solo/bridge thingee:

e|---------------------------|------------------|----------------|
B|-14b16------(16)-----(16)--|--r(15)-----(15)--|-------(15)b(16)|
G|---------------------------|------------------|----------------|
D|---------------------------|------------------|----------------|
A|---------------------------|------------------|----------------|
E|---------------------------|------------------|----------------|

[Outro]

e|-0--0--0--0--0--0--0--0--0--0--0--0--0--0--0--0--|
B|-7--7--7--7--7--7--7--7--7--7--7--7--7--7--7--7--|
G|-6--6--6--6--6--6--6--6--6--6--6--6--6--6--6--6--|
D|-------------------------------------------------|
A|-------------------------------------------------|
E|-------------------------------------------------|
      
e|--0--0--0--0--0--0--0-0--0--0--0--0--0----0-|
B|--7--7--7--7--7--7--7/9--9--9--9--9--9------|
G|--6--6--6--6--6--6--6/8--8--8--8--8--8--8---|
D|--------------------------------------------|
A|--------------------------------------------|
E|--------------------------------------------|

e|--0--0--0--0--0--0--0--0--0--0--0--0--0--0--0--0--|
B|--7--7--7--7--7--7--6--6--6--6--6--6--6--6--6--6--|
G|--6--6--6--6--6--6--5--5--5--5--5--5--5--5--5--5--|
D|--------------------------------------------------|
A|--------------------------------------------------|
E|--------------------------------------------------|

e|--0--0--0--0--0--0--0--0--0--0--0--0--0--0--0--0--|
B|--6--6--6--6--6--6--6--6--6--6--6--6--6--6--6--6--|
G|--5--5--5--5--5--5--5--5--5--5--5--5--5--5--5--5--|
D|--------------------------------------------------|
A|--------------------------------------------------|
E|--------------------------------------------------|

e|--0--0--0--0--0--0--0--0--0--0--0--0--0--0--0--0--|
B|--7--7--7--7--7--7--7--7--7--7--7--7--7--7--7--7--|
G|--6--6--6--6--6--6--6--6--6--6--6--6--6--6--6--6--|
D|--------------------------------------------------|
A|--------------------------------------------------|
E|--------------------------------------------------|

e|--0--0--0--0--0--0--0--0--0--0--0--0--0--0--0--0--|
B|--7--7--7--7--7--7--7--7--9--9--9--9--9--9--9--9--|
G|--6--6--6--6--6--6--6--6--8--8--8--8--8--8--8--8--|
D|--------------------------------------------------|
A|--------------------------------------------------|
E|--------------------------------------------------|

e|--0--0--0--0--0--0--0--0--0--0--0--0--0--0--0--0--|
B|--7--7--7--7--7--7--6--6--6--6--6--6--6--6--6--6--|
G|--6--6--6--6--6--6--5--5--5--5--5--5--5--5--5--5--|
D|--------------------------------------------------|
A|--------------------------------------------------|
E|--------------------------------------------------|
        
e|--0--0--0--0--0--0--0--0-----------------|
B|--6--6--6--6--6--6--6--6-----------------|
G|--5--5--5--5--5--5--5--5-----------------|
D|------------------------------4--3----2--|
A|---------------------------5-------------|
E|-----------------------------------------|



************************************

| x    Dead note
| PM   Palm mute
| p    Pull-off
| ~    Vibrato
| /    Slide up
| \    Slide down
| (n)  Ghost note
| b    Bend

************************************

            
            
Suggest correction
Creating personal tab
Creating personal tab
You can edit any tab online and save it as your Personal.

You can edit, replace or remove any tab part or add personal notes – all changes will be seen only by you.

Personal tabs can be accessed anytime from any device, even offline.
Learn more »
comments
print report bad tab
1 comment total.
0 reply
SPAZ64 92 Jun 21, 2014 05:44 PM

meh. Its okayish

guest
Wanna post a correction for this tab? Suggest correction