Oops, an error
Loading. Please wait.

Power Of Equality bass

version 4
version 4

Whole song

Interactive

40 views 1 this week
3 commentsread comments
1 2 3 4 5
3 more votes to show rating
add to favorites
×
Save as Personal and add changes to this tab that will be seen only by you. Learn more ›
×
You can save this tab as Personal to edit and correct it or add notes. All changes will be seen only by you. Learn more »
launch autoscroll
font size
0
reset
guitar tuner
backing track
0:00
0:00
edit
Autoscroll
slow
fast
+/-
esc
set tempo
stop
About this tab version
People argue that this song is in Eb, but by looking at the live versions it is clear that it is in standard tuning. Although, the electric guitar is tuned down half a step. Also, Flea uses and "envelope filter" for the interlude. Was this info helpful? Yes No
[Intro]
G|------------------------------------------------|
D|------------------------------------------------|
A|----------------------------------------9--8--7\|
E|------------------------------------------------|

[Verse]
G|------------------------------------------------|
D|------------------------------------------------|
A|-----4----4-6----------------4----4-6---9--8--7\|
E|/4------0---------------/4------0------0--------|

G|------------------------------------------------|
D|------------------------------------------------|
A|-----4----4-6---4--6--4------4----4-6---9--8--7\|
E|/4------0------0--------/4------0---------------| 

G|------------------------------------------------|
D|------------------------------------------------|
A|-----4----4-6----------------4----4-6---9--8--7\|
E|/4------0---------------/4------0------0--------|

G|------------------------------------------------|
D|------------------------------------------------|
A|-----4----4-6---4--6--4------4----4-6---9--8--7\|
E|/4------0------0--------/4------0---------------|

G|------------------------------------------------|
D|------------------------------------------------|
A|-----4----4-6----------------4----4-6---9--8--7\|
E|/4------0---------------/4------0------0--------|

G|------------------------------------------------|
D|------------------------------------------------|
A|-----4----4-6---4--6--4------4----4-6---9--8--7\|
E|/4------0------0--------/4------0---------------|

G|------------------------------------------------|
D|------------------------------------------------|
A|-----4----4-6----------------4----4-6---9--8--7\|
E|/4------0---------------/4------0------0--------|

G|------------------------------------------------|
D|------------------------------------------------|
A|-----4----4-6---4--6--4--5--5--5--5--5--5--5--5-|
E|/4------0------0--------------------------------|

[Chorus]
   s  s  p  s  p  s  p  s  p  s  p  s      s        s                 s  p  s     s     s     s
G|-------6-----6-----6-----9-----9----------------|----------------------x-------------------------|
D|------------------------------------------------|------------------------------------------------|
A|-2//4-----4-----4----/7-----7-------------------|-------------------x-----2-----2-----3-----3----|
E|----------------------------------4------3------|-2----------------------------------------------|

   s  s  p  s  p  s  p  s  p  s  p  s      s        s                 s  p  s           s     
G|-------6-----6-----6-----9-----9----------------|----------------------x-------------------------|
D|------------------------------------------------|------------------------------------------------|
A|-2//4-----4-----4----/7-----7-------------------|-------------------x-----2-----------3----------|
E|----------------------------------4------3------|-2----------------------------------------------|

   s  s  p  s  p  s  p  s  p  s  p  s      s        s                 s  p  s     s     s     s
G|-------6-----6-----6-----9-----9----------------|----------------------x-------------------------|
D|------------------------------------------------|------------------------------------------------|
A|-2//4-----4-----4----/7-----7-------------------|-------------------x-----2-----2-----3-----3----|
E|----------------------------------4------3------|-2----------------------------------------------|

   s  s  p  s  p  s  p  s  p  s  p  s      s        s                    
G|-------6-----6-----6-----9-----9----------------|------------------------------------------------|
D|------------------------------------------------|------------------------------------------------|
A|-2//4-----4-----4----/7-----7-------------------|------------------------------------------------|
E|----------------------------------4------3------|-2-----------------------------4/////15\\\\\----|
                                                   
[Interdule] 
   s   s p s p s p s p s p s p s   s   s p s p s p s p s p s p s  
G|-------7---x---5---x---7---x---|-------7---x---5---x---7---x---|
D|-------------3---x---5---x-----|-------------3---x---5---x-----|
A|-5---x---x-------------------3-|-5---x---x-------------------3-|
E|-------------------------------|-------------------------------| (x4)

[Outro]
   s   s p s p s   s p s p s   s p
G|-------8---8-------8---8-------8-|
D|-------------------------4/6-6---|
A|-4/6-6---6---4/6-6---6-----------|
E|---------------------------------|
  

************************************

| x   Dead note
| h   Hammer-on
| /   Slide up
| \   Slide down
| s   Slap
| P   Pop

************************************
Suggest correction
Creating personal tab
Creating personal tab
You can edit any tab online and save it as your Personal.

You can edit, replace or remove any tab part or add personal notes – all changes will be seen only by you.

Personal tabs can be accessed anytime from any device, even offline.
Learn more »
Give kudos to tab author, rate the tab!
1 2 3 4 5
comments
print report bad tab
3 comments total.
0 reply
GavinGonta_729 211 Jun 09, 2017 09:30 PM, edited on June 10 2017, 01:31 am

Just realised, the outro should be like this instead... G|-------8---8-------8---8-------8-|D|-------------------------4/6-6---|A|-4/6-6---6---4/6-6---6-----------|E|---------------------------------|

0 reply
GavinGonta_729 211 Jun 09, 2017 09:33 PM, edited on June 10 2017, 01:34 am

Oops something went wrong with that comment. Here it is...
G|-------8---8-------8---8-------8-|
D|--------------------------4/6-6-------|
A|-4/6-6---6---4/6-6---6-----------|
E|---------------------------------|

0 reply
GavinGonta_729 211 Jun 30, 2017 08:29 PM

Never mind the last two coments. I've managed to edit the tab, so now it is correct

guest
You may want to rate the tab now too:
select rating
Wanna post a correction for this tab? Suggest correction